PrimaNota.ru - самый крупный в мире бесплатный архив песенных текстов, аккордов, табулатур и нот


Buckethead - Acoustic Jam - таба, видео

Регистрация Запомнить меня
Войти через:  Facebook Google Twitter Vk Yandex Mail.ru

Buckethead - Acoustic Jam - таба, видео

Печатать
Просмотров: 171
Уроки эстрадного вокала в Санкт-Петербурге
ok this is the tab for http://www.youtube.com/watch?v=oxdogjQE2u8  1/2 step down 
turning with capo on 2ed fret
everything is relitive to the capo have fun with this one =)


e|-0--------------------------------------------------------------------------------|
B|-0-------------4-------------4-----------4-----------4----------------------------|
G|-2--------------------------------------------------------------------------------|
D|-2-------6------------6-------------6-----------6---------------------------------|
A|-0---4------------4-------------0-----------4-------------------------------------|
E|----------------------------------------------------------------------------------|
          3 times ^
e|------------------------------------------------------------------------------------|
B|------------------------------------------------------------------------------------|
G|------------9-----------8-------------6--------------8------------------------------|
D|--------11----------9------------7---------------9----------------------------------|
A|---0-------------0----------0---------------0---------------------------------------|
E|------------------------------------------------------------------------------------|
      repeat 1 time ^
e|-------------------------------------------------------------------------------------|
B|-------------------------------------------------------------------------------------|
G|----------11------------9------------8------------9------------8-----------6---------|
D|------13------------11-----------9-----------11------------9----------7--------------|
A|--0-------------0------------0-----------0------------0-----------0------------------|
E|-------------------------------------------------------------------------------------|
        ^

e|--------------------------------------------------------------------------------------|
B|------------0------------0-----------2----------0-----------0---------0----------2----|
G|--------------------------------------------------------------------------------------|
D|------2------------2------------2------------2----------2---------2----------2--------|
A|--4------------4------------4-----------4-----------4---------4----------4------------|
E|--------------------------------------------------------------------------------------|
        repeat 1 ^  2ed time play this \/
e|-------------------------------------------------------------------------------|
B|---------2----------2----------------------------------------------------------|
G|-------------------------------------------------------------------------------|
D|-----2---------2--------do this bar alot!--------------------------------------|
A|-4----------4------------------------------------------------------------------|
E|-------------------------------------------------------------------------------|
      do the the whole tab so far again. then this /\
BRIDGE
e|------------------------------------------------------------------------------------------------|
B|-------------8---------8------8----------0---------0----------0--------0----------0-------------|
G|-------11-----------11-----11---------9---------9---------7---------7---------7-----------------|
D|---9-------------9-------9---------7--------7---------5----------5--------4---------------------|
A|------------------------------------------------------------------------------------------------|
E|------------------------------------------------------------------------------------------------|
      repeat this 1 time ^


e|----------------------------------------------------------------------------------------|
B|----------0----------0--------0--0----------------------------0----------0-----0-----0--|
G|---------------------------------0-----------0-----0---0------0-------------------------|
D|-----9----------9---------9------7--------5------5---5--------7------9-----9------9-----|
A|--7----------7---------7---------5-----3------3----3----------5----7-----7------7-------|
E|----------------------------------------------------------------------------------------|
    repeat this 1 time ^

e|----------------------------------------------------------------------------------------|
B|--------0------------------0------------------------------------------------------------|
G|---------------------------0----------------------------------------0-------0------0----|
D|-----9----many times..-----7----repeat this kind of thing. ------5-------5------5-------|
A|---7-----------------------5----------------------------------3-------3------3----------|
E|----------------------------------------------------------------------------------------|

e|--------------------------------------------------------------------------------------|
B|--------8/7---0------------------------------0-----------------0----------------------|
G|------x-------0---strum this-slide to this---0---then back to -0----------------------|
D|-----x--------9------------------------------7-----------------9----------------------|
A|---7----------7------------------------------5-----------------7----------------------|
E|--------------------------------------------------------------------------------------|
 
              repeat these too bars 3x   
e|--------------------------------------------------------------------------------------|
B|---0-------------0-------------0------------------------------------------------------|
G|---9--slide to---7----then to -4------------------------------------------------------|
D|---7-------------5-------------2------------------------------------------------------|
A|--------------------------------------------------------------------------------------|
E|--------------------------------------------------------------------------------------|




   not to sure about this part
e|--------------------------------------------------------------------0------------------|
B|-11/12------------------------------7/8---------------------------0---0----------------|
G|-13---------------------------------9----repeat as needed-------0------0---------------|
D|-14-----strum this a few times-----10-------------------------4----------4-------------|
A|------------------------------------------------------------2-------------2------------|
E|-----------------------------------------------------------0---------------0-----------|
Добавлено: 07.11.2013
Другие материалы по этой песне:
  • Аккорды и текст

Страница создана 07.11.2013
http://primanota.ru/buckethead/acoustic-jam-chords.htm
Привет, Гость.
Предлагаем пройти революционный курс по гитаре.
Подарок от PrimaNota.Ru, забирай!