PrimaNota.ru - самый крупный в мире бесплатный архив песенных текстов, аккордов, табулатур и нот


Buckethead - Sketches of spain - таба, видео

Регистрация Запомнить меня
Войти через:  Facebook Google Twitter Vk Yandex Mail.ru

Buckethead - Sketches of spain - таба, видео

Печатать
Просмотров: 146
Уроки эстрадного вокала в Санкт-Петербурге


Sketches of Spain
By Buckethead


Intro

Classical
e|----------------|
B|----------------|
G|----------------|
D|--------5-------|
A|----2------2----|
E|-0--------------|


Lead 1(classical)

e|------7p5-7-----7--8--10--12-10--8-7h8p7--5-7------|
B|---------------------------------------------------|
G|---------------------------------------------------|
D|---------------------------------------------------|
A|---------------------------------------------------|
E|---------------------------------------------------|

e|------7--8--10--12--14--7--8--8h10p8-7-5-----------|
B|---------------------------------------------------|
G|---------------------------------------------------|
D|---------------------------------------------------|
A|---------------------------------------------------|
E|---------------------------------------------------|


e|------8--7--5-----5-7------------5---------------------|
B|----------------8-----5-5--5-7-8---84---8p7-7-7h8p75-|
G|-------------------------------------------------------|
D|-------------------------------------------------------|
A|-------------------------------------------------------|
E|-------------------------------------------------------|



   slide
  h hammer-on
  p pull-off
  ~ vibrato


It is Possible to do either version of this song because they are
the same notes and sound the same. I don’t know which version he
does but you could choose anyone.
 Good Luck 
   -Creagz

     Intro
e------------------------------------------------------------------
B--12-10-12~----12-13-15-17-15-12h13-12s10s12~---12-13-15-17-19-12-
G------------------------------------------------------------------
D------------------------------------------------------------------
A------------------------------------------------------------------
E------------------------------------------------------------------

continued
e------------------------------------------------------------------
B-13~-12h13p12s13-13~~----13-12-10~--8-10-12-5-5~~---5-7-9-10-5-5--
G------------------------------------------------------------------
D------------------------------------------------------------------
A------------------------------------------------------------------
E------------------------------------------------------------------

continued
e------------------------------------------------------------------
B--5-7-9-10~-7s4~---------10p8-7h8-5~------------------------------
G------------------------------------------------------------------
D------------------------------------------------------------------
A------------------------------------------------------------------
E------------------------------------------------------------------

(0:50)
e--12p10h12--12-14-15-17-15-14-12-10-10s8s10--12-10-10-8-10--12-10-12-
B---------------------------------------------------------------------
G---------------------------------------------------------------------
D---------------------------------------------------------------------
A---------------------------------------------------------------------
E---------------------------------------------------------------------

e-------------------------------------------------------------------------
B--13-12-10~--8-10-12-5-5~~--5-7-9-10-5-5---5-7-9-10~-7s4~---10p8-7h8-5~--
G-------------------------------------------------------------------------
D-------------------------------------------------------------------------
A-------------------------------------------------------------------------
E-------------------------------------------------------------------------


Добавлено: 13.01.2014
Другие материалы по этой песне:
  • Аккорды и текст

Страница создана 13.01.2014
http://primanota.ru/buckethead/sketches-of-spain-chords.htm
Привет, Гость.
Предлагаем пройти революционный курс по гитаре.
Подарок от PrimaNota.Ru, забирай!