PrimaNota.ru - самый крупный в мире бесплатный архив песенных текстов, аккордов, табулатур и нот


Blue Stahli - Shiny - бас-таба, видео

Регистрация Запомнить меня
Войти через:  Facebook Google Twitter Vk Yandex Mail.ru

Blue Stahli - Shiny - бас-таба, видео

Печатать
Просмотров: 267
-------------------------------------------------------------------------------
			     Shiny - Blue Stahli
-------------------------------------------------------------------------------

Tabbed By : Necrotic
e-mail: Joelschwallier@gmail.com

Tuning: Drop C

There's their mypace link for the music.

http://profile.myspace.com/index.cfm?fuseaction=user.viewProfile&friendID=333396591

This is a pretty fun song to play. I'm not sure if it's bass synth that plays or bass guitar.

Intro
F|------------------|------------------|------------------|----------------|
C|------------------|------------------|------------------|----------------|
G|------------------|------------------|------------------|----------------|
C|2---2---2---xx0---|2---2---2---xx0--0|2---2---2---xx0---|2---2---2---0-0-|

Main Riff
F|------------------|------------------|------------------|-----------------|
C|------------------|------------------|------------------|-----------------|
G|------------------|------------------|------------------|-----------------|
C|2--2/5--0--2-/8/7-|2--2/5--0--2-/8/7-|2--2/5--0--2-/8/7-|2--2/5--0--0-2-0-|x4

Verse
F|------------------|------------------|------------------|----------------|
C|------------------|------------------|------------------|----------------|
G|------------------|------------------|------------------|----------------|
C|2---2---2---0-0---|2---2---2---0000-0|2---2---2---0-0---|2---2---2---00--|

F|------------------|------------------|------------------|----------------|
C|------------------|------------------|------------------|----------------|
G|------------------|------------------|------------------|----------------|
C|2---2---2---000---|2---2---2---000---|2---2---2---000---|2---2---2---0-0-|

Main Riff
F|------------------|------------------|------------------|-----------------|
C|------------------|------------------|------------------|-----------------|
G|------------------|------------------|------------------|-----------------|
C|2--2/5--0--2-/8/7-|2--2/5--0--2-/8/7-|2--2/5--0--2-/8/7-|2--2/5--0--0-2-0-|x4

Outro
F|------------|------------|------------|------------|
C|------------|------------|------------|------------|
G|------------|------------|------------|------------|
C|2-2/5-0-0-0-|2-2/5-0-0-0-|2-2/5-0-0-0-|2-2/5-0-020-|

F|------------|------------|------------|------------|
C|------------|------------|------------|------------|
G|------------|------------|------------|------------|
C|2-2/5-0-0-0-|2-2/5-0-0-0-|2-2/5-0-0-0-|2-2-------2-|



| /  slide up
| \  slide down
| h  hammer-on
| p  pull-off
| ~  vibrato
| +  harmonic
| x  Mute note
===============================================================================
Добавлено: 14.06.2012
Другие материалы по этой песне:
  • Аккорды и текст

Страница создана 14.06.2012
http://primanota.ru/blue-stahli/shiny-chords.htm
Привет, Гость.
Предлагаем пройти революционный курс по гитаре.
Подарок от PrimaNota.Ru, забирай!