PrimaNota.ru - самый крупный в мире бесплатный архив песенных текстов, аккордов, табулатур и нот


Black Stone Cherry - Reverend Wrinkle - текст песни, таба, видео

Регистрация Запомнить меня
Войти через:  Facebook Google Twitter Vk Yandex Mail.ru

Black Stone Cherry - Reverend Wrinkle - текст песни, таба, видео

Печатать
Просмотров: 187
D Flat/C#

Intro:

d|--------------------------------------|
a|--------------------------------------|
f|--------------------------------------|
c|--------------------------------------|
g|---8-5-3-2p0-----5---8-5-3-2p0--------|
c|--0-0-0-0---0h3h5---0-0-0-0---0h3h5p0-|


Verse:

d|------------------------------------|
a|------------------------------------|
f|-10s7-4s5-4s5-----10s7-4s5-4s5------|
c|-10s7-5s5-5s5-3p0-10s7-5s5-5s5-3p0--|
g|--8s5-2s3-2s3-3p0--8s5-2s3-2s3-3p0--|
c|--------------3p0--------------3p0--| x2

Pre-chorus (not 100% sure on this):

d|-0-0-0-0-0-0-0-0-------------------|
a|-2-2-2-2-2-2-2-2-------------------|
f|-0-0-0-0-0-0-0-0-------------------|
c|-2-2-2-2-2-2-2-2-3-3-3-3-5-5-5-5---|
g|-0-0-0-0-0-0-0-0-3-3-3-3-5-5-5-5---|
c|-2-2-2-2-2-2-2-2-3-3-3-3-5-5-5-5---|

d|------------------|
a|------------------|
f|-----3-------3-5--|
c|-0-3-3-5-0-3-1-5--|
g|-0-3-1-5-0-3-1-3--|
c|-0-3---5-0-3------|

Will have the rest later

Tabbed By Ben Nield
Добавлено: 23.02.2012
Другие материалы по этой песне:
  • Аккорды и текст

Страница создана 23.02.2012
http://primanota.ru/black-stone-cherry/reverend-wrinkle-chords.htm
Привет, Гость.
Предлагаем пройти революционный курс по гитаре.
Подарок от PrimaNota.Ru, забирай!