PrimaNota.ru - самый крупный в мире бесплатный архив песенных текстов, аккордов, табулатур и нот


Black Stone Cherry - Shooting Star - текст песни, таба, видео

Регистрация Запомнить меня
Войти через:  Facebook Google Twitter Vk Yandex Mail.ru

Black Stone Cherry - Shooting Star - текст песни, таба, видео

Печатать
Просмотров: 186
Great Song!

   Tremolo Effect while playing this at the beginning...
e|---------------------------------------------------------------------|
B|---------------------------------------------------------------------|
G|---------------------------------------------------------------------|X2
D|------------------------------------------3-5-3-0--------------------|
A|----3------------------------3---------------------------------------|
E|-0-----5--3--0--3-5-3----0------5--3--0------------------------------|


    Heavy
e|-------------------------------------------------------------------|
B|-------------------------------------------------------------------|
G|-------------------------------------------------------------------|
D|--0--5--5--3--0--3h5-3--0--5--5--3--0---3h5-3----------------------|X2
A|--0--5--5--3--0--3h5-3--0--5--5--3--0------------------------------|
E|--0--3--5--3--0--3h5-3--0--3--5--3--0------------------------------|


   Verse
e|-------------------------------------------------------------------------|
B|-------------------------------------------------------------------------|
G|-------------------------------------------------------------------------|
D|-------------------------------------------------------------------------|
A|----------3-------------------------------3-------------------3h5-3------|
E|----0-0-0---0-0-5-0-0-3-0-0-3h5-3^--0-0-0----0-0-5-0-0-3-0-0-------------|
p.m.    * *   * *   * *   * *           * *    * *   * *   * *


PRELUDE to chorus just repeat the opening "heavy".
"Now throw your burden's up!!..."


Chorus "Like a shooting star!"
e|------------------------------------------------------------------|
B|------------------------------------------------------------------|
G|------------------------------------------------------------------|
D|--77777777--99999999--55555555--33333333--------------------------|
A|--55555555--77777777--33333333--11111111--------------------------|
E|--55555555--77777777--33333333--11111111--------------------------|

This is the little progression in between the chorus then play chorus again and then play this again.
e|--------------------------------------------------------------|
B|--------------------------------------------------------------|
G|--------------------/5-5-5------------------/7-7-7------------|
D|-0-3-0-3-5-5-5-0-0--/x-x-x---0-3-0-3-5-5-5--/x-x-x------------|
A|-0-3-0-3-5-5-5-0-0--/3-3-3---0-3-0-3-5-5-5--/5-5-5------------|
E|-0-3-0-3-5-5-5-0-0-----------0-3-0-3-5-5-5--------------------|

repeat verse, prelude and chorus and progression in between chorus the same as above.

 Breakdown while Ben solo's
e|------------------------------------------------------------------|
B|------------------------------------------------------------------|
G|------------------------------------------------------------------|
D!--0-5-5-------------------0-5-5---------0-5-5--------0-5-5~-------|
A|--0-5-5--solo in bewteen--0-5-5---solo--0-5-5--solo--0-5-5~-------|
E|--0-3-5-------------------0-3-5---------0-3-5--------0-3-5~-------|


Play this behind the solo goes on...
e|---------------------------------------------------------------------------|
B|---------------------------------------------------------------------------|
G|----------------- ----3/5-5/7----------777-999-101010-121212- 1414--7\-----|
D|--0-3-0-3-5-5-5-0-0---x/x-x/x----(x3)--xxx-xxx-x-x-x--x-x-x---x-x---x\-----|
A|--0-3-0-3-5-5-5-0-0---1/3-3/5----------555-777-8-8-8--101010--1212--5\-----|
E|--0-3-0-3-5-5-5-0-0--------------------------------------------------------|

Bridge
e|-------------------------------------|
B!-------------------------------------|
G|-------------------------------------|
D|--0----------------------------------|
A|--0----(X8)--------------------------|
E|--0----------------------------------|

Repeat Chorus and in between chorus progression once.

Then play opening "heavy" on the outro and play the palm muted verse half-way through 
outro and then finishing with the LAST part of the rythmn behind the solo.

The End! BSC rocks! These gusy lived 15 mintues from where I live. I cant believe they 
it big! Rock on!


  *  palm mute
| /  slide up
| \  slide down
| h  hammer-on
| p  pull-off
| ~  vibrato
| +  harmonic
| x  Mute note
===========================================================================
Добавлено: 25.04.2012
Другие материалы по этой песне:
  • Аккорды и текст

Страница создана 23.02.2012
http://primanota.ru/black-stone-cherry/shooting-star-chords.htm
Привет, Гость.
Предлагаем пройти революционный курс по гитаре.
Подарок от PrimaNota.Ru, забирай!