PrimaNota.ru - самый крупный в мире бесплатный архив песенных текстов, аккордов, табулатур и нот


Black Stone Cherry - Me And Mary Jane - таба, бас-таба, видео

Регистрация Запомнить меня
Войти через:  Facebook Google Twitter Vk Yandex Mail.ru

Black Stone Cherry - Me And Mary Jane - таба, бас-таба, видео

Печатать
Просмотров: 277
Авторы: Chris Robertson, Jon Lawhon, Ben Wells, John Fred Young

-------------------------------------------------------------------------------
                             Me And Mary Jane  - Black Stone Cherry
-------------------------------------------------------------------------------
Tabbed by: AngMan100
E-mail: foofighter@hotmail.co.uk

This is my very first tab. It's the same whole way through the song with verse and chorus repeated.
The outro is also the same as the intro.I haven't put in all the repeats but the repeats but the song 
is simple and easy to understand so you'll be able to work them out.
Hope you guys enjoy it.
Tuning: C# G# C# F# A# D#

Intro
e|---------------------------------------------------------------------------|
B|---------------------------------------------------------------------------|
G|---------------------------------------------------------------------------|
D|---0----------------------------0------------------------------------------|
A|---0----------------------------0------------------------------------------|
E|---0----------------------------0------------------------------------------|

e|---------------------------------------------------------------------------|
B|---------------------------------------------------------------------------|
G|---------------------------------------------------------------------------|
D|----0----0----3--0--3--0--3--0--3--0--3--0--3--0-5/7--0 3--0--5/7----------|
A|----0----0----3--0--3--0--3--0--3--0--3--0--3--0-3/5--0 3--0--3/5----------|
E|----0----0----3--0--3--0--3--0--3--0--3--0--3--0------0 3--0---------------|

Verse 
e|---------------------------------------------------------------------------|
B|---------------------------------------------------------------------------|
G|---------------------------------------------------------------------------|
D|----5/7-7-5----------5/7-7-5----------5/7-7-5------------5/7-7-5-----------|
A|----3/5-5-3----------3/5-5-3----------3/5-5-3------------3/5-5-3-----------|
E|---------------------------------------------------------------------------|

e|---------------------------------------------------------------------------|
B|---------------------------------------------------------------------------|
G|---------------------------------------------------------------------------|
D|----5/7-7-5----------5/7-7-3----------5/7-7-5------------5/7-7-5-----------|
A|----3/5-5-3----------3/5-5-5----------3/5-5-3------------3/5-5-3-----------|
E|---------------------------------------------------------------------------|

e|---------------------------------------------------------------------------|
B|---------------------------------------------------------------------------|
G|---------------------------------------------------------------------------|
D|----7-7-7-7-7-7-7-7-9-9-9-9-9-9-9-9----------------------------------------|
A|----5-5-5-5-5-5-5-5-7-7-7-7-7-7-7-7----------------------------------------|
E|----5-5-5-5-5-5-5-5-7-7-7-7-7-7-7-7----------------------------------------|

Chorus 
e|---------------------------------------------------------------------------|
B|---------------------------------------------------------------------------|
G|---------------------------------------------------------------------------|
D|----0---------------------------0---------------------------0--------------|
A|----0---------------------------0---------------------------0--------------|
E|----0---------------------------0---------------------------0--------------|

e|---------------------------------------------------------------------------|
B|---------------------------------------------------------------------------|
G|---------------------------------------------------------------------------|
D|----3-0-3-0-3-0-3-0-3-0-3-0----3--0----3-0-3-0-3-0-3-0-3-0-3-0-----3 0-----|
A|----------------------------3/5----3/5-------------------------3/5-----3/5-|
E|---------------------------------------------------------------------------|

e|---------------------------------------------------------------------------------|
B|---------------------------------------------------------------------------------|
G|---------------------------------------------------------------------------------|
D|---0--0--3-0-3-0-3-0-3-0-3-0-3-0-5/7--0--0-3-0-3-0-3-0-3-0-3-0-3-0-5/7-0-3-0-5/7-|
A|---0--0--3-0-3-0-3-0-3-0-3-0-3-0-3/5--0--0-3-0-3-0-3-0-3-0-3-0-3-0-3/5-0-3-0-3/5-|
E|---0--0--3-0-3-0-3-0-3-0-3-0-3-0------0--0-3-0-3-0-3-0-3-0-3-0-3-0-----0-3-0-----|


************************************

| /   slide up
| \   slide down
| h   hammer-on
| p   pull-off
| ~   vibrato
| +   harmonic
| x   Mute note
| b   Bend
| pb  Pre-bend
| br  Bend release
| pbr Pre-bend release
| brb Bend release bend

************************************
Добавлено: 16.05.2014
Другие материалы по этой песне:
  • Аккорды и текст

Страница создана 16.05.2014
http://primanota.ru/black-stone-cherry/me-and-mary-jane-chords.htm
Привет, Гость.
Предлагаем пройти революционный курс по гитаре.
Подарок от PrimaNota.Ru, забирай!