PrimaNota.ru - самый крупный в мире бесплатный архив песенных текстов, аккордов, табулатур и нот


Black Stone Cherry - Soul Creek - текст песни, таба, видео

Регистрация Запомнить меня
Войти через:  Facebook Google Twitter Vk Yandex Mail.ru

Black Stone Cherry - Soul Creek - текст песни, таба, видео

Печатать
Просмотров: 149
Artist: Black Stone Cherry
Song: Soul Creek
Album: Folklore & Superstition

Awesome song from an awesome album. Hardest song I've tabbed so far! Enjoy!

D#|------------------------------------------------------------|
Bb|------------------------------------------------------------|
F#|--------2-------------4p2------------2-------------2--------|
C#|-------2--4-4-2—-2\1------4---2--4--2-4-4-2---4--2---4-4-2--| intro
G#|---0-2----------4—--4--------------4------------4-----------|
C#|-4----------------------------------------------------------|

D#|-----------------------|
Bb|-----------------------|
F#|-444-444-2-444-444-2---| verse (then play intro)
C#|-444-444-2-444-444-2---|
G#|-222-222-0-222-222-0---|
C#|-----------------------|

D#|-------------------------------|
Bb|-------------------------------|
F#|-444-444-2-444-444-------------| verse (then play intro)
C#|-444-444-2-444-444-------------|
G#|-222-222-0-222-222-4-2-0-------|
C#|------------------------4-2----|

D#|---------------------------|
Bb|---------------------------|
F#|--6--6--6--6---4--4--2--2--| pre-chorus
C#|--6--6--6--6---4--4--2--2--|
G#|--4--4--4--4-3-2--2--0--0--|
C#|---------------------------|

D#|----------------------------------------|
Bb|----------------------------------------|
F#|---------2h4p2---4-4-4-4----------------| x2 listen for rhythm
C#|-4-4-4-4-------4-4-4-4-4--2-1-9-7-4474--|
G#|-4-4-4-----------2-2-2-2--2-1-9-7-4474--|
C#|-4-4-4--------------------2-1-9-7-4474--|

D#|-----------------------|
Bb|-----------------------|
F#|-444-444-2-444-444-2---| verse (then play intro)
C#|-444-444-2-444-444-2---|
G#|-222-222-0-222-222-0---|
C#|-----------------------|

D#|-------------------------------|
Bb|-------------------------------|
F#|-444-444-2-444-----------------| verse (then play intro)
C#|-444-444-2-444-----------------|
G#|-222-222-0-222--\--------------|
C#|----------------\--------------|

                    ^
This is played by turning the pic so the long + thin side is in contact with the string 
running the pic down the strings


D#|---------------------------|
Bb|---------------------------|
F#|--6--6--6--6---4--4--2--2--| pre-chorus
C#|--6--6--6--6---4--4--2--2--|
G#|--4--4--4--4-3-2--2--0--0--|
C#|---------------------------|

D#|----------------------------------------|
Bb|----------------------------------------|
F#|---------2h4p2---4-4-4-4----------------| chorus
C#|-4-4-4-4-------4-4-4-4-4--2-1-9-7-4474--|
G#|-4-4-4-----------2-2-2-2--2-1-9-7-4474--|
C#|-4-4-4--------------------2-1-9-7-4474--|

D#|-----------------------------------------|
Bb|-----------------------------------------|
F#|---------2h4p2---4-4-4-4-----------------| chorus into solo
C#|-4-4-4-4-------4-4-4-4-4--2-1-9-7-4474b--|
G#|-4-4-4-----------2-2-2-2--2-1-9-7-4474b--|
C#|-4-4-4--------------------2-1-9-7-4474b--|

D#|-------------------------------------------------------------------|
Bb|-----------------------------------2-------------------------------|
F#|-2-------------------2-------------4br-4p2---2---------------------|
C#|----4--------2----------4------4-4--------4-—---4-4p2-4—4p2-2------|
G#|---------2-4---4p2p0-------2-4-----------------------------4-4-2-0-|
C#|--------------------4---------------------------------------------4|

D#|----------14-----------14-----------14---------14----------14------|
Bb|-----17b19--17p14-17b19--17p14-17b19—17p14-17b19—17p14-17b19—17p14-|
F#|-------------------------------------------------------------------|
C#|-------------------------------------------------------------------|
G#|-------------------------------------------------------------------|
C#|2-4-4--------------------------------------------------------------|

D#|-------14----------------------------------------------------------|
Bb|--17b19--17p14—-{----14h17p14--}—x8 (judge by ear)-----------------|
F#|----------------{16b18---------}--------------------16b18r16p14--14|
C#|---------------------------------------------------------------16--|
G#|-------------------------------------------------------------------|
C#|-------------------------------------------------------------------|

D#|-------------------------------------------------------------------|
Bb|-------------------14----17-14----17-------------------------------|
F#|-14v---------14-16-16b18----16b18----18r16—---16b18r16---14----14--|
C#|-14v---11s16-------------------------------------------16---16-----|
G#|-------------------------------------------------------------------|
C#|-------------------------------------------------------------------|

D#|-------------------------------------------------------------------|
Bb|-14----------------------------------------------------------------|
F#|-16b18r16-14----14\------------------------------------------------|
C#|-------------16----------------------------------------------------|
G#|-------------------------------------------------------------------|
C#|-------------------------------------------------------------------|

D#|---------------------------|
Bb|---------------------------|
F#|--6--6--6--6---------2--2--| pre-chorus
C#|--6--6--6--6---2--2--2--2--|
G#|--4--4--4--4---2--2--0--0--|
C#|---------------2--2--------|

Chorus sung twice (no guitar)

D#|----------------|
Bb|----------------|
F#|----------------|
C#|-s\-------------|
G#|-s\-------------|
C#|-s\-------------|


D#|----------------------------------------|
Bb|----------------------------------------|
F#|---------2h4p2---4-4-4-4----------------| chorus
C#|-4-4-4-4-------4-4-4-4-4--2-1-9-7-4474--| (x2)
G#|-4-4-4-----------2-2-2-2--2-1-9-7-4474--|
C#|-4-4-4--------------------2-1-9-7-4474--|

D#|---------5-5p2p0-5-5p2p0-5 5p2p0---------5-5p2p0-5-5p2p0--5-5p2p0--|
Bb|-----2h5-------------------------5p2p0-----------------------------|
F#|-2h4-----------------------------------2---------------------------|
C#|-------------------------------------------------------------------|
G#|-------------------------------------------------------------------|
C#|-------------------------------------------------------------------|

D#|-5-2p0--2----------19b21r19----------------------------------------|
Bb|------5-----5------------------------------------------------------|
F#|-----------------------------11-14-14-11-11-14-14b16r14-11---11v---|
C#|----------------------------------------------------------14-------|
G#|-------------------------------------------------------------------|
C#|-------------------------------------------------------------------|

D#|------------------------------------------------{-----14h17p14-}---|
Bb|-10—7h10p7-7-10-7h10s12-10h12p10-12-14-12h14p12-{17b19---------}-x6|
F#|-------------------------------------------------------------------|
C#|-------------------------------------------------------------------|
G#|-------------------------------------------------------------------|
C#|-------------------------------------------------------------------|

D#|-14----------14----14-----14----14-----14----14-----14----14-------|
Bb|-17b19r17b19—17b19-17b19—-17b19-17b19—-17b19-17b19-—17b19-17b19----|
F#|-------------------------------------------------------------------|
C#|-------------------------------------------------------------------|
G#|-------------------------------------------------------------------|
C#|-------------------------------------------------------------------|

             down at soulcreeeeek
D#|-------------------------------------------------------------------|
Bb|-14-------------------17b19—14h17p14-------14h17p14------14h17p14--|
F#|-16b18--16-14-11v--------------------16b18---------16b18-----------|
C#|-------------------------------------------------------------------|
G#|-------------------------------------------------------------------|
C#|-------------------------------------------------------------------|

D#|-------------------------------------------------------------------|
Bb|-17p14-12h14p12h14p12-10h12p10-7h10p7h10p7—7h10p7-5h7p5h7p5—5h7p5--|
F#|------------------------------------------9----------------s6----s6|
C#|-------------------------------------------------------------------|
G#|-------------------------------------------------------------------|
C#|-------------------------------------------------------------------|

D#|--------------------------------5h7p5h7—5h7p5--9-------12s14-17b19-|
Bb|-5h7p5-----------------------5h7-------7-----7—12b14---------------|
F#|------s6p4h6p4s2-h4p2h4p2h4s6--------------------------------------|
C#|-------------------------------------------------------------------|
G#|-------------------------------------------------------------------|
C#|-------------------------------------------------------------------|

D#|-r17-14---14------------------------------------|
Bb|--------17--17-14-17b19r17p14-12----------------|
F#|------------------------------14b16-r14—-11\----|
C#|-----------------------------------------11\----| outro solo
G#|------------------------------------------------|
C#|------------------------------------------------|
Добавлено: 07.04.2012
Другие материалы по этой песне:
  • Аккорды и текст

Страница создана 07.04.2012
http://primanota.ru/black-stone-cherry/soul-creek-chords.htm
Привет, Гость.
Предлагаем пройти революционный курс по гитаре.
Подарок от PrimaNota.Ru, забирай!