PrimaNota.ru - самый крупный в мире бесплатный архив песенных текстов, аккордов, табулатур и нот


Black Stone Cherry - Stop Runnin - таба, видео

Регистрация Запомнить меня
Войти через:  Facebook Google Twitter Vk Yandex Mail.ru

Black Stone Cherry - Stop Runnin - таба, видео

Печатать
Просмотров: 204
Уроки эстрадного вокала в Санкт-Петербурге
Artist: Black Stone Cherry
Song: Stop Runnin
Album: Rain Wizard EP
Tabbed By: Matthew Moore
Email:mcm37@live.Missouristate.edu

Tuning: tuned down half a step

This is a good song,but it's relatively unknown for the most part.  I know you can
it from itunes though.  I'm nearly 100% sure that the intro lead guitar is correct and fairly
the solo is too, but not too certain about the chords, especially the intro and verses 
hard to hear).  I'm not too good at playing by ear, but I did the best I can.
this tab will bring some recognition to the song and someone out there can post a 
version.

As far as the verses and background guitar in the intro go I'm pretty sure I have the
right, but just not tabbed how he actually plays it.  He does a bunch of different little
and stuff I can't pick up.

Intro
              D           A         G          D      A
Eb|--------------------------------------------------------------|
Bb|--------------------------------------------------------------|
Gb|--------------------------------------------------------------| x1
Db|---------------------7----------------------------------------|
Ab|-----7/9---5~----7/9---7~----7-9-10---9--7--5~-5/7-7~--2b-0---|
Eb|---------7----------------------------------------------------|


Intro/Verse
This is the part I'm not sure about, but here's the best I can come up with. Some small
licks in here too I didn't tab
     D               A               G       D       A
Eb|--------------------------------------------------------------------|
Bb|----------------------------------33333333--------------------------|
Gb|--7777777777777777666666666666666644444444777777776666666666666666--|
Db|--7777777777777777777777777777777755555555777777777777777777777777--|
Ab|--------------------------------------------------------------------|
Eb|--------------------------------------------------------------------|

Chorus
Not sure about this either, can't make it out very well.  There's also some small licks
here too I didn't bother with
     D               A              D                A
Eb|--------------------------------------------------------------------|
Bb|--------------------------------------------------------------------|
Gb|--7777777777777777----------------7777777777777777------------------|
Db|--7777777777777777777777777777777777777777777777777777777777777777--|
Ab|--5555555555555555777777777777777755555555555555557777777777777777--|
Eb|------------------5555555555555555----------------5555555555555555--|

Repeat Intro and Verse

Then Chorus once again

Bridge after second chorus:
     B       A       G               B       A       G       A
Eb|--------------------------------------------------------------------|
Bb|--------------------------------------------------------------------|
Gb|--4444444422222222----------------4444444422222222------------------|
Db|--4444444422222222555555555555555544444444222222225555555577777777--|
Ab|--2222222200000000555555555555555522222222000000005555555577777777--|
Eb|------------------3333333333333333----------------3333333355555555--|


Solo:
Don't know the chords behind it

Eb|-----------------------------------------------------------|
Bb|-----------------------------------------------------------|
Gb|----------------11-12~-12~-12-11----11~-11~-11-12-11-------|
Db|-/12~-12~-12-14------------------14------------------14~~--|
Ab|-----------------------------------------------------------|
Eb|-----------------------------------------------------------|

Eb|---------------------------------------------------10~--10~|
Bb|----------7h8--7~-------8b-8-7------10b-10--7-8-10---------|
Gb|------7h9---------9p7----------9-9~------------------------|
Db|--7h9-----------------9------------------------------------|
Ab|-----------------------------------------------------------|
Eb|-----------------------------------------------------------|

Then repeat Chorus til end


Here's another possible way to play the intro/Verse (Still not 100% right)
Eb|--------------------------------------------------------------------|
Bb|--3333333333333333222222222222222233333333333333332222222222222222--|
Gb|--2222222222222222222222222222222244444444222222222222222222222222--|
Db|--0000000000000000222222222222222255555555000000002222222222222222--|
Ab|--------------------------------------------------------------------|
Eb|--------------------------------------------------------------------|

That's it. hopefully this helps you guys, and hopefully someone can make a truly correct
cause the guitar on the verses sounds pretty awesome.
Добавлено: 29.04.2012
Другие материалы по этой песне:
  • Аккорды и текст

Страница создана 29.04.2012
http://primanota.ru/black-stone-cherry/stop-runnin-chords.htm
Привет, Гость.
Предлагаем пройти революционный курс по гитаре.
Подарок от PrimaNota.Ru, забирай!