PrimaNota.ru - самый крупный в мире бесплатный архив песенных текстов, аккордов, табулатур и нот


Black Stone Cherry - Lonely Train - текст песни, таба, бас-таба, драм-таба, видео

Регистрация Запомнить меня
Войти через:  Facebook Google Twitter Vk Yandex Mail.ru

Black Stone Cherry - Lonely Train - текст песни, таба, бас-таба, драм-таба, видео

Печатать
Просмотров: 368
Уроки эстрадного вокала в Санкт-Петербурге
lonely train-black stone cherry

this is my version of it,since there are no other tabs this is all by ear...so if theres 
mistake's let me know,I got tired of waiting for other people to tab it out,so I did it myself.

this is also in drop D

e|-----------------------------------------------------------|
b|-----------------------------------------------------------|
g|-----------------------------------------------------------|
d|-0-3--0-0-0-3--0-0-0-3-0-0---------------------------------|
a|-0-3--0-0-0-3--0-0-0-3-0-0---------------------------------|
D|-0-3--0-0-0-3--0-0-0-3-0-0-6-5-3-0-6-5-3-0-6-5-3-0-6-5-3-0-|

e|-----------------------------------------------------------|
b|-----------------------------------------------------------|
g|-----------------------------------------------------------|
d|-0-3--0-0-0-3--0-0-0-3-0-0---------------------------------|
a|-0-3--0-0-0-3--0-0-0-3-0-0---------------------------------|
D|-0-3--0-0-0-3--0-0-0-3-0-0-6-5-3-0-6-5-3-0-6-5-3-0-6-5-3-0-|

e|-----------------------------------------------------------|
b|-----------------------------------------------------------|
g|-----------------------------------------------------------|
d|-0-3--0-0-0-3--0-0-0-3-0-0---------------------------------|
a|-0-3--0-0-0-3--0-0-0-3-0-0---------------------------------|
D|-0-3--0-0-0-3--0-0-0-3-0-0-6-5-3-0-6-5-3-0-6-5-3-0-6-5-3-0-|

e|-------------------------------------------------|
b|-------------------------------------------------|
g|-------------------------------------------------|
d|-------------------------------------------------|
a|-------------------------------------------------|
D|-6-5-3-0-6-5-3-0--0-3-5-6-5-3-0--6-5-3-0-6-5-3-0-|

e|-------------------------------------------------|
b|-------------------------------------------------|
g|-------------------------------------------------|
d|-------------------------------------------------|
a|-------------------------------------------------|
D|-6-5-3-0-6-5-3-0--0-3-5-6-5-3-0--6-5-3-0-6-5-3-0-|

e|---------------------------------------------------------------|
b|---------------------------------------------------------------|
g|---------------------------------------------------------------|
d|---------------------------------------------------------------|
a|---------------------------------------------------------------|
D|-/17\--3-0-0-0-5-0-0-0-3-0-0-0-5-0-0-0-3-0-0-0-5-0-0-0-3-0-0-0-|


/=slide up to that note
\=slide down from that note

there u go that all I got of that song,

heres there website if you wanna check it out www.blackstonecherry.com
Добавлено: 29.07.2012
Другие материалы по этой песне:

Страница создана 28.02.2012
http://primanota.ru/black-stone-cherry/lonely-train-chords.htm
Привет, Гость.
Предлагаем пройти революционный курс по гитаре.
Подарок от PrimaNota.Ru, забирай!