PrimaNota.ru - самый крупный в мире бесплатный архив песенных текстов, аккордов, табулатур и нот


Black Stone Cherry - White Trash Millionaire - таба, видео

Регистрация Запомнить меня
Войти через:  Facebook Google Twitter Vk Yandex Mail.ru

Black Stone Cherry - White Trash Millionaire - таба, видео

Печатать
Просмотров: 476
Авторы: Chris Robertson, Jon Lawhon, Zac Maloy, Ben Wells, John Fred Young

-------------------------------------------------------------------------------
WHITE TRASH MILLIONAIRE - Black Stone Cherry                
-------------------------------------------------------------------------------
From The Album "Between The Devil And The Deep Blue Sea"
Tabbed by: DallasTolerWade
Email: year9events@googlemail.com

Tuning: Drop B - B-F#-B-E-G#-C#

C#|----------------------------------------------------------------------------|
G#|----------------------------------------------------------------------------|
E |---------------------------------------------------------5------------------|
B |---------------------------------------------------------5-5-3--------------|
F#|-0-0-0-0--0-5-3-5p3-----0--5-3-5p3--------0-5-3-5p3------3-5-3-5b6-3-3------|
B |-0-0-0-0--0-5-3-----5-3-0--5-3-----5-3*---0-5-3-----5-3----5-3-5b6-3-3------|
pm   . . . .


************************************
| p   Pull-Off
| *   Pinched Harmonic
| b   Bend
| pm  Palm Mute
************************************
Добавлено: 23.06.2012
Другие материалы по этой песне:

Страница создана 02.03.2012
http://primanota.ru/black-stone-cherry/white-trash-millionaire-chords.htm
Привет, Гость.
Предлагаем пройти революционный курс по гитаре.
Подарок от PrimaNota.Ru, забирай!