PrimaNota.ru - самый крупный в мире бесплатный архив песенных текстов, аккордов, табулатур и нот


Black Stone Cherry - Magic Mountain - таба, видео

Регистрация Запомнить меня
Войти через:  Facebook Google Twitter Vk Yandex Mail.ru

Black Stone Cherry - Magic Mountain - таба, видео

Печатать
Просмотров: 52
-------------------------------------------------------------------------------
MAGIC MOUNTAIN - Black Stone Cherry
-------------------------------------------------------------------------------

Tuning: Drop D (DADGBe)

Introduction - Guitar 1                                       x2
e|----------------|----------------|----------------|----------------|
B|----------------|----------------|----------------|----------------|
G|----------------|----------------|----------------|----------------|
D|----------------|----------------|----------------|----------------|
A|----3---5---5---|----3---5---5---|----3---5---5---|----3---5-------|
D|0-------------6-|--6-------------|5-------------4-|--4---------3---|

Introduction - Guitar 2 (Join in Bar 5)
e|----------------|----------------|----------------|----------------|
B|----6-----------|----------------|----6-----------|----------------|
G|--------7-5-----|--5-------------|--------7-5-----|--5-------5-7---|
D|------------7-6-|------5---3-----|------------7-6-|------7---------|
A|----------------|------------5---|----------------|----------------|
D|----------------|----------------|----------------|----------------|



Verse 1 (Both Guitars)
e|----------------|----------------|----------------|----------------|
B|----------------|----------------|----------------|----------------|
G|----------------|----------------|----------------|----------------|
D|----------------|----------------|----------------|----------------|
A|--------5-3-5---|----------0---3-|--------5-3-5---|----------0-3434| (trill)
D|0---0---------4-|--5---6---------|0---0---------4-|--5---6---------|
                                                                 
e|----------------|----------------|----------------|----------------|
B|----------------|----------------|----------------|----------------|
G|----------------|----------------|----------------|----------------|
D|----------------|----------------|----------------|----------------|
A|--------5-3-5---|----------0---3-|--------5-3-5---|----------0-3---|
D|0---0---------4-|--5---6---------|0---0---------4-|--5---6---------|



Pre-Chorus
e|----------------|--------7-5-7---|
B|-7-5-7------5-4-|5---------------|
G|----------------|----------------|
D|----------------|----------------|
A|-5-3-5------3-2-|3---------------|
D|----------------|--------5-3-5---|



Chorus 1
e|----------------|----------------|----------------|----------------|
B|----------------|----------------|----------------|----------------|
G|----------------|5-5-5-5-5-5-5-5-|----------------|3-3-3-3-3-3-3-3-|
D|1-1-1-1-1-1-1-1-|5-5-5-5-5-5-5-5-|5-5-5-5-5-5-5-5-|3-3-3-3-3-3-3-3-|
A|1-1-1-1-1-1-1-1-|3-3-3-3-3-3-3-3-|5-5-5-5-5-5-5-5-|1-1-1-1-1-1-1-1-|
D|1-1-1-1-1-1-1-1-|----------------|5-5-5-5-5-5-5-5-|----------------|

e|----------------|----------------|----------------|----------------|
B|----------------|----------------|----------------|----------------|
G|----------------|5-5-5-5-5-5-5-5-|----------------|----------------|
D|1-1-1-1-1-1-1-1-|5-5-5-5-5-5-5-5-|----------------|----------------|
A|1-1-1-1-1-1-1-1-|3-3-3-3-3-3-3-3-|----------------|----------------|
D|1-1-1-1-1-1-1-1-|----------------|5-3---5---x-x-x-|x-3-3-5-5-------|

e|----------------|----------------|----------------|----------------|
B|----------------|----------------|----------------|----------------|
G|----------------|5-5-5-5-5-5-5-5-|----------------|3-3-3-3-3-3-3-3-|
D|1-1-1-1-1-1-1-1-|5-5-5-5-5-5-5-5-|5-5-5-5-5-5-5-5-|3-3-3-3-3-3-3-3-|
A|1-1-1-1-1-1-1-1-|3-3-3-3-3-3-3-3-|5-5-5-5-5-5-5-5-|1-1-1-1-1-1-1-1-|
D|1-1-1-1-1-1-1-1-|----------------|5-5-5-5-5-5-5-5-|----------------|

e|----------------|----------------|----------------|----------------|
B|----------------|----------------|----------------|----------------|
G|----------------|----------------|----------------|----------------|
D|1--1--1--1--1--1|1--1--1--1--1--1|2--2--2--2--2--2|3--3--3--3--3--3|
A|1--1--1--1--1--1|1--1--1--1--1--1|2--2--2--2--2--2|3--3--3--3--3--3|
D|1--1--1--1--1--1|1--1--1--1--1--1|2--2--2--2--2--2|3--3--3--3--3--3|



Repeat Introduction (Guitar 1)                                  
e|----------------|----------------|----------------|----------------|
B|----------------|----------------|----------------|----------------|
G|----------------|----------------|----------------|----------------|
D|----------------|----------------|----------------|----------------|
A|----3---5---5---|----3---5---5---|----3---5---5---|----3---5-------|
D|0-------------6-|--6-------------|5-------------4-|--4---------3---|

Repeat Introduction (Guitar 2)
e|----------------|----------------|----------------|----------------|
B|----6-----------|----------------|----6-----------|----------------|
G|--------7-5-----|--5-------------|--------7-5-----|--5-------5-7---|
D|------------7-6-|------5---3-----|------------7-6-|------7---------|
A|----------------|------------5---|----------------|----------------|
D|----------------|----------------|----------------|----------------|



Verse 2
e|----------------|----------------|----------------|----------------|
B|x-x-6-6-x-x-6-5-|x-x-6-6-x-x-6-6-|x-x-6-6-x-x-6-6-|x-x-6-6-x-x-6-6-|
G|x-x-5-5-x-x-5-5-|x-x-5-5-x-x-5-5-|x-x-5-5-x-x-5-5-|x-x-5-5-x-x-5-5-|
D|----------------|----------------|----------------|----------------|
A|----------------|----------------|----------------|----------------|
D|----------------|----------------|----------------|----------------| (Bass plays variation on verse 1 here)

e|----------------|----------------|----------------|----------------|
B|x-x-6-6-x-x-6-5-|x-x-6-6-x-x-6-6-|----------------|----------------|
G|x-x-5-5-x-x-5-5-|x-x-5-5-x-x-5-5-|----------------|----------------|
D|----------------|----------------|0---0---0-------|----------------|
A|----------------|----------------|0---0---0-------|----------------|
D|----------------|----------------|0---0---0-------|--------/12~~~~-| 



Chorus 2
e|----------------|----------------|----------------|----------------|
B|----------------|----------------|----------------|----------------|
G|----------------|5-5-5-5-5-5-5-5-|----------------|3-3-3-3-3-3-3-3-|
D|1-1-1-1-1-1-1-1-|5-5-5-5-5-5-5-5-|5-5-5-5-5-5-5-5-|3-3-3-3-3-3-3-3-|
A|1-1-1-1-1-1-1-1-|3-3-3-3-3-3-3-3-|5-5-5-5-5-5-5-5-|1-1-1-1-1-1-1-1-|
D|1-1-1-1-1-1-1-1-|----------------|5-5-5-5-5-5-5-5-|----------------|

e|----------------|----------------|----------------|----------------|
B|----------------|----------------|----------------|----------------|
G|----------------|5-5-5-5-5-5-5-5-|----------------|----------------|
D|1-1-1-1-1-1-1-1-|5-5-5-5-5-5-5-5-|----------------|----------------|
A|1-1-1-1-1-1-1-1-|3-3-3-3-3-3-3-3-|----------------|----------------|
D|1-1-1-1-1-1-1-1-|----------------|5-3---5---x-x-x-|x-3-3-5-5-------|

e|----------------|----------------|----------------|----------------|
B|----------------|----------------|----------------|----------------|
G|----------------|5-5-5-5-5-5-5-5-|----------------|3-3-3-3-3-3-3-3-|
D|1-1-1-1-1-1-1-1-|5-5-5-5-5-5-5-5-|5-5-5-5-5-5-5-5-|3-3-3-3-3-3-3-3-|
A|1-1-1-1-1-1-1-1-|3-3-3-3-3-3-3-3-|5-5-5-5-5-5-5-5-|1-1-1-1-1-1-1-1-|
D|1-1-1-1-1-1-1-1-|----------------|5-5-5-5-5-5-5-5-|----------------|

e|----------------|----------------|----------------|----------------|
B|----------------|----------------|----------------|----------------|
G|----------------|----------------|----------------|----------------|
D|1--1--1--1--1--1|1--1--1--1--1--1|2--2--2--2--2--2|3--3--3--3--3--3|
A|1--1--1--1--1--1|1--1--1--1--1--1|2--2--2--2--2--2|3--3--3--3--3--3|
D|1--1--1--1--1--1|1--1--1--1--1--1|2--2--2--2--2--2|3--3--3--3--3--3|



/ Bridge (Guitar 1; Rhythm)                                            \
| e|--------------------------------|--------------------------------| |
| B|--------------------------------|--------------------------------| |
| G|--------------------------------|--------------------------------| |
| D|--------------------------------|--------------------------------| |
| A|--------------------------------|--------------------------------| |
| D|-----------------0----6----0----|-----------------0----6----0----| |
|                                                                      |
| Guitar 2; Lead                                                       |
| e|--------------------------------|--------------------------------| |
| B|1513----------------------------|1513----------------------------| |
| G|----1412------14----------------|----1412------14----------------| |
| D|--------151215------------------|--------151215------------------| |
| A|--------------------------------|--------------------------------| |
| D|--------------------------------|--------------------------------| |
\                                                                      /

/                                                                      \
| e|--------------------------------|--------------------------------| |
| B|--------------------------------|--------------------------------| |
| G|--------------------------------|--------------------------------| |
| D|--------------------------------|--------------------------------| |
| A|--------------------------------|--------------------------------| |
| D|-0----6----0-----0----8----0----|-0----10---0-----0----13---0----| |
|                                                                      |
| e|--------------------------------|--------------------------------| |
| B|--------------------------------|--------------------------------| |
| G|--------------------------------|--------------------------------| |
| D|--------------------------------|--------------------------------| |
| A|--------------------------------|--------------------------------| |
| D|--------------------------------|--------------------------------| |
\                                                                      /

/                                                                      \
| e|--------------------------------|--------------------------------| |
| B|--------------------------------|--------------------------------| |
| G|--------------------------------|--------------------------------| |
| D|--------------------------------|--------------------------------| |
| A|--------------------------------|--------------------------------| |
| D|-0----6----0-----0----8----0----|-0----10---0-----0----13---0----| |
|                                                                      |
| e|17------------------------------|--------------------------------| |
| B|20b22---------------------------|18--15--------------------------| |
| G|--------------------------------|----------------14----13--------| |
| D|--------------------------------|--------------------------------| |
| A|--------------------------------|--------------------------------| |
| D|--------------------------------|--------------------------------| |
\                                                                      /

/                                                                      \
| e|--------------------------------|--------------------------------| |
| B|--------------------------------|--------------------------------| |
| G|--------------------------------|--------------------------------| |
| D|--------------------------------|--------------------------------| |
| A|--------------------------------|--------------------------------| |
| D|-0----6----0-----0----8----0----|-0----10---0-----0----13---0----| |
|                                                                      |
| e|--------------------------------|--------------------------------| |
| B|15------14-------13-------------|--------------------------------| |
| G|--13-12----12-11----11-10-------|--------------------------------| |
| D|--------------------------12----|12-10-7------10-10b12-----------| |
| A|--------------------------------|--------10-8--------------------| |
| D|--------------------------------|--------------------------------| |
\                                                                      /

/                                                                      \
| e|--------------------------------|--------------------------------| |
| B|--------------------------------|--------------------------------| |
| G|--------------------------------|--------------------------------| |
| D|--------------------------------|--------------------------------| |
| A|--------------------------------|--------------------------------| |
| D|-0----6----0-----0----8----0----|-0----10---0-----0----13---0----| |
|                                                                      |
| e|--------------------------------|--------------------------------| |
| B|15~-1515~-1515~-14~-1414~-1414~-|13~-1313~-1313~-15~-------------| |
| G|--------------------------------|--------------------------------| |
| D|--------------------------------|--------------------------------| |
| A|--------------------------------|--------------------------------| |
| D|--------------------------------|--------------------------------| |
\                                                                      /

/                                                                      \
| e|--------------------------------|--------------------------------| |
| B|--------------------------------|--------------------------------| |
| G|--------------------------------|--------------------------------| |
| D|--------------------------------|--------------------------------| |
| A|--------------------------------|--------------------------------| |
| D|-0----6----0-----0----8----0----|-0----10---0-----0----13---0----| |
|                                                                      |
| e|1310--131310--13101310--131310--|13108-108---8-----------8-------| |
| B|----13------13--------13------13|----------10--108-108-----108---| |
| G|--------------------------------|----------------------10------10| |
| D|--------------------------------|--------------------------------| |
| A|--------------------------------|--------------------------------| |
| D|--------------------------------|--------------------------------| |
\                                                                      /



/ Bridge, Part 2 (More Gently)                                           \
| e|----------------|----------------|----------------|----------------| |
| B|----------------|----------------|----------------|----------------| |
| G|8---------------|5---------------|----------------|----------------| |
| D|8---------------|5---------------|5---------------|4---------------| |
| A|6---------------|3---------------|5---------------|4---------------| |
| D|----------------|----------------|5---------------|4---------------| |
|                                                                        |
| e|-------6--------|----------------|----------------|----------------| |
| B|----------------|----------------|----------------|----------------| |
| G|8---------8--7--|5---------5--75-|----------5--75-|5---------------| |
| D|----------------|-------8--------|5------8-------8|--------8-------| |
| A|----------------|----------------|----------------|----------------| |
| D|----------------|----------------|----------------|----------------| |
\                                                                        /

/                                                                        \
| e|----------------|----------------|----------------|----------------| |
| B|----------------|----------------|----------------|----------------| |
| G|8---------------|5---------------|----------------|----------------| |
| D|8---------------|5---------------|5---------------|----------------| |
| A|6---------------|3---------------|5---------------|----------------| |
| D|----------------|----------------|5---------------|----------------| |
|                                                                        |
| e|----------------|----------------|----------------|----------------| |
| B|--------86----86|8-------86------|----------------|----------------| |
| G|7b8-------75b6--|----------755b7-|----------------|----------------| |
| D|----------------|---------------8|5---------------|----------------| |
| A|----------------|----------------|----------------|----------------| |
| D|----------------|----------------|----------------|----------------| |
\                                                                        /



Chorus 3
e|----------------|----------------|----------------|----------------|
B|----------------|----------------|----------------|----------------|
G|----------------|5-5-5-5-5-5-5-5-|----------------|3-3-3-3-3-3-3-3-|
D|1-1-1-1-1-1-1-1-|5-5-5-5-5-5-5-5-|5-5-5-5-5-5-5-5-|3-3-3-3-3-3-3-3-|
A|1-1-1-1-1-1-1-1-|3-3-3-3-3-3-3-3-|5-5-5-5-5-5-5-5-|1-1-1-1-1-1-1-1-|
D|1-1-1-1-1-1-1-1-|----------------|5-5-5-5-5-5-5-5-|----------------|

e|----------------|----------------|----------------|----------------|
B|----------------|----------------|----------------|----------------|
G|----------------|5-5-5-5-5-5-5-5-|----------------|----------------|
D|1-1-1-1-1-1-1-1-|5-5-5-5-5-5-5-5-|----------------|----------------|
A|1-1-1-1-1-1-1-1-|3-3-3-3-3-3-3-3-|----------------|----------------|
D|1-1-1-1-1-1-1-1-|----------------|5-3---5---x-x-x-|x-3-3-5-5-------|

e|----------------|----------------|----------------|----------------|
B|----------------|----------------|----------------|----------------|
G|----------------|5-5-5-5-5-5-5-5-|----------------|3-3-3-3-3-3-3-3-|
D|1-1-1-1-1-1-1-1-|5-5-5-5-5-5-5-5-|5-5-5-5-5-5-5-5-|3-3-3-3-3-3-3-3-|
A|1-1-1-1-1-1-1-1-|3-3-3-3-3-3-3-3-|5-5-5-5-5-5-5-5-|1-1-1-1-1-1-1-1-|
D|1-1-1-1-1-1-1-1-|----------------|5-5-5-5-5-5-5-5-|----------------|

e|----------------|----------------|----------------|----------------|
B|----------------|----------------|----------------|----------------|
G|----------------|----------------|----------------|----------------|
D|1--1--1--1--1--1|1--1--1--1--1--1|2--2--2--2--2--2|3--3--3--3--3--3|
A|1--1--1--1--1--1|1--1--1--1--1--1|2--2--2--2--2--2|3--3--3--3--3--3|
D|1--1--1--1--1--1|1--1--1--1--1--1|2--2--2--2--2--2|3--3--3--3--3--3|



Outro                           
e|----------------|----------------|----------------|----------------|
B|----------------|----------------|----------------|----------------|
G|----------------|----------------|----------------|----------------|
D|----------------|----------------|----------------|----------------|
A|----3---5---5---|----3---5---5---|----3---5---5---|----3---5-------|
D|0-------------6-|--6-------------|5-------------4-|--4---------3---|

e|----------------|----------------|----------------|----------------|
B|----------------|----------------|----------------|----------------|
G|----------------|----------------|----------------|----------------|
D|----------------|----------------|----------------|----------------|
A|----3---5---5---|----3---5---5---|----3---5---5---|----3---5-3-0---|
D|0-------------6-|--6-------------|5-------------4-|--4-----------5-|
                        
e|----------------|----------------||
B|----------------|----------------||
G|----------------|----------------||
D|----------------|----------------||
A|----------------|----------------||
D|3~~~------------|----------------||
  let ring...

************************************

| /   slide up
| \   slide down
| h   hammer-on
| p   pull-off
| ~   vibrato
| +   harmonic
| x   Mute note
| b   Bend
| pb  Pre-bend
| br  Bend release
| pbr Pre-bend release
| brb Bend release bend

************************************
Добавлено: 25.05.2016
Другие материалы по этой песне:

Страница создана 26.06.2015
http://primanota.ru/black-stone-cherry/magic-mountain-chords.htm
Привет, Гость.
Предлагаем пройти революционный курс по гитаре.
Подарок от PrimaNota.Ru, забирай!