PrimaNota.ru - самый крупный в мире бесплатный архив песенных текстов, аккордов, табулатур и нот


Black Stone Cherry - Dance Girl - таба, видео

Регистрация Запомнить меня
Войти через:  Facebook Google Twitter Vk Yandex Mail.ru

Black Stone Cherry - Dance Girl - таба, видео

Печатать
Просмотров: 130
-------------------------------------------------------------------------------
                             Dance Girl - Black Stone Cherry
-------------------------------------------------------------------------------

Tuning: Drop C# (Tune to drop D then down half a step)
Every Verse
D#|-----------------------------------------------------------------------------|
A#|-----------------------------------------------------------------------------|
F#|-----------------------------------------------------------------------------|
C#|-----------------------------------------------------------------------------|
G#|-8--xx-8-x-10-x-5-7--x-xx--7-x-8-x-3-5-3-5-5-3-5-----------------------------|
C#|-0--xx-0-x----x-0----x-xx--0-x---x-0-----------------------------------------|

Chorus
D#|---------------------------------------------------------------------------------|
A#|---------------------------------------------------------------------------------|
F#|---------------------------------------------------------------------------------|
C#|-3-x--3-5-0-2-x--2-3-5-0--5-0--0-5-0---------------------------------------------|
G#|-3-x--3-5-0-2-x--2-3-3-0--3-0--0-3-0---------------------------------------------|
C#|-3-x--3-5-0-2-x--2-3-5-0--5-0--0-5-0---------------------------------------------|


************************************

| /   slide up
| \   slide down
| h   hammer-on
| p   pull-off
| ~   vibrato
| +   harmonic
| x   Mute note ('Chuckie')
| b   Bend
| pb  Pre-bend
| br  Bend release
| pbr Pre-bend release
| brb Bend release bend

************************************
Добавлено: 26.06.2015
Другие материалы по этой песне:
  • Аккорды и текст

Страница создана 26.06.2015
http://primanota.ru/black-stone-cherry/dance-girl-chords.htm
Привет, Гость.
Предлагаем пройти революционный курс по гитаре.
Подарок от PrimaNota.Ru, забирай!