PrimaNota.ru - самый крупный в мире бесплатный архив песенных текстов, аккордов, табулатур и нот


Black Stone Cherry - Big City Lights - текст песни, таба, видео

Регистрация Запомнить меня
Войти через:  Facebook Google Twitter Vk Yandex Mail.ru

Black Stone Cherry - Big City Lights - текст песни, таба, видео

Печатать
Просмотров: 571
Уроки эстрадного вокала в Санкт-Петербурге
Artist:  Black Stone Cherry
Tabbed By: Matthew Moore
Tuning: Drop C#  (Drop D tuned Half a step down)

Check out my other tabs from Black stone cherry and rate them please:
Stop Runnin'
You (Solo)
        

|--------------------------------------------------------------------------|
|-----------------10~~-----------------10b12--10~~---7p5--7~--5~-----------|
|-------6h7--9p7-------------6h7--9p7-----------------------------6b7r6p4--|
|---/7-------------------/7------------------------------------------------|
|--------------------------------------------------------------------------|
|--------------------------------------------------------------------------|

|---------12-----12-----12-----12-----12-----------------------------------|
|---5~~---12b14--12b14--12b14--12b14--14r12p10-----10h12-----10h12-----10~~|
|----------------------------------------------11---------11--------11-----|
|--------------------------------------------------------------------------|
|--------------------------------------------------------------------------|
|--------------------------------------------------------------------------|

|--------------------------------------------------------------------------|
|--------------------------------------------------------------------------|
|---11p9------9------------------------------------------------------------|
|---------11-----11\9p7--9b11r9p7h9~~---9b10r9--7~~~-----------------------|
|--------------------------------------------------------------------------|
|--------------------------------------------------------------------------|

Добавлено: 14.06.2012
Другие материалы по этой песне:
  • Аккорды и текст

Страница создана 21.03.2012
http://primanota.ru/black-stone-cherry/big-city-lights-chords.htm
Привет, Гость.
Предлагаем пройти революционный курс по гитаре.
Подарок от PrimaNota.Ru, забирай!