PrimaNota.ru - самый крупный в мире бесплатный архив песенных текстов, аккордов, табулатур и нот


Black Stone Cherry - Cowboys - таба, видео

Регистрация Запомнить меня
Войти через:  Facebook Google Twitter Vk Yandex Mail.ru

Black Stone Cherry - Cowboys - таба, видео

Печатать
Просмотров: 161
Уроки эстрадного вокала в Санкт-Петербурге
-I don't normaly figure out songs myself, but i got really bored of waiting for someone 
else to tab this.
-I'm definately not 100% sure about a lot of this, but it's a start. I would very much 
apprichiate comments and corrections, and the bits i've missed.
-I had a quick go on the solo as requested, but don't know all of it, i've put the 
time where the bits i have done start, if you want to improvise your own use D 
(mainly)pentatonic (technicly C# because of the tuning).


Main riff (fairly confident about this bit):
D#|-on intro-|-----------------------------|
A#|----------|-----------------------------|
F#|----------|-(7-5-7)---------------------|
C#|----------|-----------------------------|
G#|----------|--5p3-5----------------------|
C#|-3-5-3-5--|----------5p3-3---5br--3-5br-|


Verse:
D#|------------------------------------------------------------------------|
A#|------------------------------------------------------------------------|
F#|------------------------------------------------------------------------|
C#|-3-0-3-0------------------3-0-3-0---------------------------------------|
G#|-3-0-3-0------------------3-0-3-0---------------------------------------|
C#|-3-0-3-0-5p3-5p3-5-3------3-0-3-0-5p3-5p3-5-----------------------------|

Chorus:
-i think both guitarists play different things, this might be one of the parts, if 
anyone knows the other please comment with it
-I have put the lyrics underneath to show where 'chord changes' are
-Listen to song for strumming pattern

D#|---------------------------------------------------------------------|
A#|---------------------------------------------------------------------|
F#|-5--------7--------5--------7--------5--------7--------5-------------|
C#|-x--------x--------x--------x--------x--------x--------x-------------|
G#|-3--------5--------3--------5--------3--------5--------3-------------|
C#|---------------------------------------------------------------------|
  where have all the cowboys gone that made the west so strong

D#|---------------------------------------------------------------------|
A#|---------------------------------------------------------------------|
F#|-5--------7--------5--------7--------5--------7----------------------|
C#|-x--------x--------x--------x--------x--------x--------5-------------|
G#|-3--------5--------3--------5--------3--------5--------5-------------|
C#|-------------------------------------------------------5-------------|
    on a trail thats long long gone singing their cowboy song


The riff just before the solo(and at the end):
D#|----------------------------------------------------------------------|
A#|----------------------------------------------------------------------|
F#|----------------------------------------------------------------------|
C#|----------------------------------------------------------------------|
G#|-5p3-5p3-----------------(3-3h5-3-3h5)--------------------------------|
C#|---------5p3-5p3-3p0-3p0----------------------------------------------|


Solo:

1:50
e|-----------------------------------|
B|-------------------------10h13p10--|
G|-------10h12p10----10h12-----------|
D|-10h12---------12------------------|
A|-----------------------------------|
E|-----------------------------------|

1:55
e|-15b(x7ish)rp13-----15brp13--1313--15brp13--1313—-15brp13--13---------|
B|---------------15----------15-------------15-------------15---(10)-13-|
G|----------------------------------------------------------------------|
D|----------------------------------------------------------------------|
A|----------------------------------------------------------------------|
E|----------------------------------------------------------------------|

2:02
e|------------------------------------------------15b-15-13-15b-15-----|
B|------10-13-------10-13-------10-13-10-13b---------------------------|
G|-10h12-------10h12-------10h12---------------------------------------|
D|---------------------------------------------------------------------|
A|---------------------------------------------------------------------|
E|---------------------------------------------------------------------|
Добавлено: 14.04.2012
Другие материалы по этой песне:
  • Аккорды и текст

Страница создана 14.04.2012
http://primanota.ru/black-stone-cherry/cowboys-chords.htm
Привет, Гость.
Предлагаем пройти революционный курс по гитаре.
Подарок от PrimaNota.Ru, забирай!