PrimaNota.ru - самый крупный в мире бесплатный архив песенных текстов, аккордов, табулатур и нот


Black Stone Cherry - Devils Queen - текст песни, таба, видео

Регистрация Запомнить меня
Войти через:  Facebook Google Twitter Vk Yandex Mail.ru

Black Stone Cherry - Devils Queen - текст песни, таба, видео

Печатать
Просмотров: 240
-----------------------------------------------------------------------------
                             DEVIL'S QUEEN - Black Stone Cherry
-----------------------------------------------------------------------------
Tabbed by: Hogi96
Email: andrew.hogarth@talktalk.net

Tuning: Drop C# (C# G# C# F# A# D#)

Intro:

D#|-------------------------------------------------------------------------|
A#|-------------------------------------------------------------------------|
F#|-------------------------------------------------------------------------|
C#|---------------------------------4-------------------------------4-------|
G#|-------0---2-0---------0---2-0---------0---2-0---------0---2-0-----------|
C#|-2b3-4---4-----4-4---4---4-----4-----4---4-----4-4---4---4-----4---------|

D#|-------------------------------------------------------------------------|
A#|-------------------------------------------------------------------------|
F#|-------------------------------------------------------------------------|
C#|-----------------------------4----------------------------(drum fill)----|
G#|---0---2-0---------0---2-0---------0---2-0---------0---------------------|
C#|-4---4-----4-4---4---4-----4-----4---4-----4-4---4---4-------------------|

Main Riff:

Guitar 1:
D#|-------------------------------------------------------------------------|
A#|-------------------------------------------------------------------------|
F#|-------------------------------------------------------------------------|
C#|-------2---4-2---------2---4-2---------2---4-2---------2---4-2----(x2)---|
G#|-2b3-4-0-4-2-0-4-4---4-0-4-2-0-4-4---4-0-4-2-0-4-4---4-0-4-2-0-4---------|
C#|-2b3-4---4-----4-4---4---4-----4-4---4---4-----4-4---4---4-----4---------|

Guitar 2:
D#|-------------------------------------------------------------------------|
A#|-------------------------------------------------------------------------|
F#|-------------------------------------------------------------------------|
C#|-7~~--7~-6-----------------7~~--7~-6-------9~~-7~~-----------------------|
G#|-----------9/7--/9~~~----------------9/7-----------9~~-------------------|
C#|-------------------------------------------------------------------------|

Verse:

D#|-------------------------------------------------------------------------|
A#|-------------------------------------------------------------------------|
F#|-------------------------------------------------------------------------|
C#|----------------2-----2-4-----4-2-----2-4----4----(x4)-------------------|
G#|-2b3-4----------0---4-0-2---4-2-0---4-0-2--4-2---------------------------|
C#|-2b3-4--------------4-------4-------4------4-----------------------------|

Pre-chorus:

D#|-----------------------------------|
A#|-----------------------------------|
F#|-6-6666666---9--99-99--------------|
C#|-6-6666666---9--99-99--------------|
G#|-4-4444444---7--77-77--------------|
C#|-----------------------------------|

Chorus:

Guitar 1:

1st & 3rd time:                      2nd time:
D#|-------------------------------|----------------------------------------|
A#|-------------------------------|----------------------------------------|
F#|-2--2-222----------------------|-2--2-222-4--4-4444---------------------|
C#|-2--2-222-2--2-2222--4-4-4444--|-2--2-222-4--4-4444---------------------|
G#|-0--0-000-2--2-2222--4-4-4444--|-0--0-000-2--2-2222-4-4p2h4p2h4-2h4p2h4-|
C#|----------2--2-2222--4-4-4444--|--------------------4-4p2h4p2h4-2h4p2h4-|

Last time:
D#|-------------------------------------------------------------------------|
A#|-------------------------------------------------------------------------|
F#|-2--2-222---------4-4-44444444444----------------------------------------|
C#|-2--2-222-2-2-222-4-4-44444444444--4-2-----------------------------------|
G#|-0--0-000-2-2-222-2-2-22222222222--2-0-4---------------------------------|
C#|----------2-2-222----------------------4---------------------------------|

Guitar 2:

1st & 3rd time:                    2nd time:
D#|-------------------------------|-----------------------------------------|
A#|-------------------------------|-----------------------------------------|
F#|-2~-1~-------------2-----------|-2~-1~-----------------------------------|
C#|-------4~-2h4p2h4~---4-2-2-----|-------4~-2h4p2h4--2h4p2h4---------------|
G#|----------------------------2-0|-----------------------------------------|
C#|-------------------------------|-----------------------------------------|

Last time:

D#|-------------------------------------------------------------------------|
A#|-------------------------------------------------------------------------|
F#|-2~~-1~~-4-4-4444444444--------------------------------------------------|
C#|---------4-4-4444444444--4-2---------------------------------------------|
G#|---------2-2-2222222222--2-0-4-------------------------------------------|
C#|-----------------------------4-------------------------------------------|

Bridge:

D#|-------------------------------------------------------------------------|
A#|-------------------------------------------------------------------------|
F#|-------------------------------------------------------------------------|
C#|-4--2-----4-2----4--2-----4-2------(x2)----------------------------------|
G#|-2--0--4--2-0-4--2--0--4--2-0-4------------------------------------------|
C#|-------4------4--------4------4------------------------------------------|

The main riff is played through to the fade-out, with a dual solo played over the top. I 
haven't tabbed the solo because I just improvise whenever I play it.

Thanks, hope you enjoyed the tab.

************************************

| /   slide up
| \   slide down
| h   hammer-on
| p   pull-off
| ~   vibrato
| +   harmonic
| x   Mute note
| b   Bend
| pb  Pre-bend
| br  Bend release
| pbr Pre-bend release
| brb Bend release bend

************************************
Добавлено: 06.07.2012
Другие материалы по этой песне:
  • Аккорды и текст

Страница создана 06.07.2012
http://primanota.ru/black-stone-cherry/devils-queen-chords.htm
Привет, Гость.
Предлагаем пройти революционный курс по гитаре.
Подарок от PrimaNota.Ru, забирай!