PrimaNota.ru - самый крупный в мире бесплатный архив песенных текстов, аккордов, табулатур и нот


Bass Drum Of Death - Gb City - таба, видео

Регистрация Запомнить меня
Войти через:  Facebook Google Twitter Vk Yandex Mail.ru

Bass Drum Of Death - Gb City - таба, видео

Печатать
Просмотров: 101
-------------------------------------------------------------------------------
                             GB City - Bass Drum of Death
-------------------------------------------------------------------------------
Tabbed by: Carlos the Dwarf
E-mail: gunsnroses213@gmail.com

Tuning: Standard

Lead - intro
e|---------------------------------------------------------------------------|
B|--7---------7--------------------------------------------------------------|
G|7---5----7-----5-----------------------------------------------------------|
D|-----7------------7--------------------------------------------------------|
A|---------------------------------------------------------------------------|
E|---------------------------------------------------------------------------|

Verse / Chorus
e|---------------------------------------------------------------------------|
B|---------------------------------------------------------------------------|
G|777777777777777777777777777777777777---------------------------------------|
D|7777777777777777777777777777777777777777777777777777777--------------------|
A|5555555555555555555555555555555555557777777777777777777--------------------|
E|------------------------------------5555555555555555555--------------------|


Pre-chorus
e|---------------------------------------------------------------------------|
B|---------------------------------------------------------------------------|
G|7777/10101010--------------------------------------------------------------|
D|7777/10101010--------------------------------------------------------------|
A|5555/8-8-8-8---------------------------------------------------------------|
E|---------------------------------------------------------------------------|

Riff 2
e|---------------------------------------------------------------------------|
B|---------------------------------------------------------------------------|
G|---------------------------------------------------------------------------|
D|5/7-7--3/5-5--3-3----------------------------------------------------------|
A|5/7-7--3/5-5--3-3----------------------------------------------------------|
E|3/5-5--1/3-3--1-1----------------------------------------------------------|

Riff 3
e|---------------------------------------------------------------------------|
B|---------------------------------------------------------------------------|
G|1010101010-5-5--7--7--7----------------------------------------------------|
D|1010101010-5-5--7--7--7----------------------------------------------------|
A|8-8-8-8-8--3-3--5--5--5----------------------------------------------------|
E|---------------------------------------------------------------------------|




************************************

| /   slide up
| \   slide down
| h   hammer-on
| p   pull-off
| ~   vibrato
| +   harmonic
| x   Mute note
| b   Bend
| pb  Pre-bend
| br  Bend release
| pbr Pre-bend release
| brb Bend release bend

************************************
Добавлено: 20.10.2015
Другие материалы по этой песне:
  • Аккорды и текст

Страница создана 20.10.2015
http://primanota.ru/bass-drum-of-death/gb-city-chords.htm
Привет, Гость.
Предлагаем пройти революционный курс по гитаре.
Подарок от PrimaNota.Ru, забирай!