PrimaNota.ru - самый крупный в мире бесплатный архив песенных текстов, аккордов, табулатур и нот


Bass Drum Of Death - Gb City - аккорды и текст, таба, видео

Регистрация Запомнить меня
Войти через:  Facebook Google Twitter Vk Yandex Mail.ru

Bass Drum Of Death - Gb City - аккорды и текст, таба, видео

Печатать
Просмотров: 231
Новый альбом группы 'Черный Кузнец' по культовому сериалу 'Сверхъестественное'!
Авторы музыки: John Barrett

Gb City
Bass Drum Of Death
GB City - Bass Drum Of Death
      GB City - 2011
___________________________________________________________________________________________________________

    D     A       F     G     C
e|---------------------------------|
B|---------------------------------|
G|--------------10-----------------|
D|--12----7-----10(3)---5-----10---|
A|--12----7-----8-(3)---5-----10---|
E|--10----5-----x-(1)---3-----8----|

___________________________________________________________________________________________________________

[Intro]

e|---14-----------14------------|---14-----------14------------|
B|15----13----15------13-----15-|15----13----15------13-----15-|
G|--------14--------------14----|--------14--------------14----|
D|------------------------------|------------------------------|
A|------------------------------|------------------------------|
E|------------------------------|------------------------------|

e|---14-----------14------------|---14-----------14------------|
B|15----13----15------13-----15-|15----13----15------13----(15)|
G|--------14--------------14----|--------14--------------14----|
D|------------------------------|------------------------------|
A|------------------------------|------------------------------|
E|------------------------------|------------------------------|

[Verse 1]

D
You might like to make me think it's wrong
Any time I wait is way too long
          A
Baby, got you
             D
Oh, baby got me

[Pre-Chorus 1]

D
Killing time is what I need to be
Real life, it brings me to my knees
          A
Baby, got you
             D     F
Oh baby, got me
        D     F
You got me
        D     F
You got me

[Chorus]

    D
Oh, GB City, GB City, GB City

e|---------------------|
B|---------------------|
G|---------------------|
D|5/7--7-7--3/5-5--3-3-|
A|5/7--7-7--3/5-5--3-3-|
E|3/5--5-5--1/3-3--1-1-|

D
GB City, GB City, GB City

e|---------------------|
B|---------------------|
G|---------------------|
D|5/7--7-7--3/5-5--3-3-|
A|5/7--7-7--3/5-5--3-3-|
E|3/5--5-5--1/3-3--1-1-|
                                                              D
e|---14-----------14------------|---14-----------14------------|
B|15----13----15------13-----15-|15----13----15------13-----15-|
G|--------14--------------14----|--------14--------------14----|
D|------------------------------|------------------------------|
A|------------------------------|------------------------------|
E|------------------------------|------------------------------|
D
e|---14-----------14------------|---14-----------14------------|
B|15----13----15------13-----15-|15----13----15------13----(15)|
G|--------14--------------14----|--------14--------------14----|
D|------------------------------|------------------------------|
A|------------------------------|------------------------------|
E|------------------------------|------------------------------|

[Verse 2]

D
This town has caused me too much pain, gotta
throw back your ??? into rain
          A
Baby, got you
             D
Oh, baby got me

[Pre-Chorus 2]

D
These suits are always in my way
More jib, it gets me through the day
          A
Baby, got you
             D     F
Oh baby, got me
        D     F
You got me
        D     F
You got me

[Chorus]

    D
Oh, GB City, GB City, GB City

e|---------------------|
B|---------------------|
G|---------------------|
D|5/7--7-7--3/5-5--3-3-|
A|5/7--7-7--3/5-5--3-3-|
E|3/5--5-5--1/3-3--1-1-|

D
GB City, GB City, GB City

e|---------------------|
B|---------------------|
G|---------------------|
D|5/7--7-7--3/5-5--3-3-|
A|5/7--7-7--3/5-5--3-3-|
E|3/5--5-5--1/3-3--1-1-|

[Bridge]

(let D ring out for a just a wee bit)

e|--------------------------------------------|
B|--------------------------------------------|
G|10-10-10-10-10-10-10------------------------| x3
D|10-10-10-10-10-10-10-10--12-12--12-12-12-12-|
A|8--8--8--8--8--8--8--10--12-12--12-12-12-12-|
E|---------------------8---10-10--10-10-10-10-|

e|---------------------|
B|---------------------|
G|---------------------|
D|5/7--7-7--3/5-5--3-3-|
A|5/7--7-7--3/5-5--3-3-|
E|3/5--5-5--1/3-3--1-1-|

e|--------------------------------------------|
B|--------------------------------------------|
G|10-10-10-10-10-10-10------------------------| x3
D|10-10-10-10-10-10-10-10--12-12--12-12-12-12-|
A|8--8--8--8--8--8--8--10--12-12--12-12-12-12-|
E|---------------------8---10-10--10-10-10-10-|

e|---------------------|
B|---------------------|
G|---------------------|
D|5/7--7-7--3/5-5--3-3-|
A|5/7--7-7--3/5-5--3-3-|
E|3/5--5-5--1/3-3--1-1-|

(let D ring out, a wee bit longer than last time)

[Verse 1]

D
You might like to make me think it's wrong
Any time I wait is way too long
          A
Baby, got you
             D     F
Oh baby, got me
             D     F
Oh baby, got me
             D     F
Oh baby, got me

[Chorus]

    D
Oh, GB City, GB City, GB City

e|---------------------|
B|---------------------|
G|---------------------|
D|5/7--7-7--3/5-5--3-3-|
A|5/7--7-7--3/5-5--3-3-|
E|3/5--5-5--1/3-3--1-1-|

D
GB City, GB City, GB City

e|---------------------|
B|---------------------|
G|---------------------|
D|5/7--7-7--3/5-5--3-3-|
A|5/7--7-7--3/5-5--3-3-|
E|3/5--5-5--1/3-3--1-1-|

[Outro]

D
 
Добавлено: 22.03.2018
Другие материалы по этой песне:
  • Аккорды и текст

Страница создана 20.10.2015
http://primanota.ru/bass-drum-of-death/gb-city-chords.htm
Привет, Гость.
Предлагаем пройти революционный курс по гитаре.
Подарок от PrimaNota.Ru, забирай!