PrimaNota.ru - самый крупный в мире бесплатный архив песенных текстов, аккордов, табулатур и нот


Bass Drum Of Death - Electric - таба, видео

Регистрация Запомнить меня
Войти через:  Facebook Google Twitter Vk Yandex Mail.ru

Bass Drum Of Death - Electric - таба, видео

Печатать
Просмотров: 63
-------------------------------------------------------------------------------
                             Electric - Bass Drum Of Death
-------------------------------------------------------------------------------
Tabbed by: BassmanBlazek
E-mail: zlogar.blaz9@gmail.com

Tuning: EADGBe

INTRO

e|---------------------------------------------------------------------------|
B|---------------------------------------------------------------------------|
G|-4~~~--4-4(4)(4)--4~~~--4-4/7-9---4~~~--4-4(4)(4)--4~~~----4-4(4)(4)-------|
D|-4~~~--4-4(4)(4)--4~~~--4-4/7-9---4~~~--4-4(4)(4)--4~~~----4-4(4)(4)-------|
A|-2~~~--2-2-0--0---2~~~--2-2/5-7-0-2~~~--2-2-0--0---2~~~--2-2-2-0--0--------|
E|----------------0--------------------------------0------------------0------|

VERSE

e|---------------------------------------------------------------------------|
B|------------------------------------------PLAYED 6 TIMES-------------------|
G|-4--44--4-4--4-4-4-4-4--------------7--------------------------------------|
D|-4--44--4-4--4-4-4-4-4-5-55-5-5-5/7-7-7------------------------------------|
A|-2--22--2-2--2-2-0-2-0-5-55-5-5-5/7-5-7------------------------------------|
E|-----------------------3-33-3-3-3/5---5------------------------------------|

CHORUS

e|---------------------------------------------------------------------------|
B|------------------PLAYED 4 TIMES-------------------------------------------|
G|-44444444-7777-------------------------------------------------------------|
D|-44444444-7777-------------------------------------------------------------|
A|-22222222-5555-------------------------------------------------------------|
E|---------------------------------------------------------------------------|

BRIDGE

e|---------------------------------------------------------------------------|
B|--------------------------------------------------PLAYED 2 TIMES-----------|
G|-4-4-4-4-4-4-------------------------7-7-7-9-------------------------------|
D|-4-4-4-4-4-4-5-5-5-5-5-5-4-4-4-4-4-4-7-7-7-9-7/9---------------------------|
A|-2-0-2-0-2-0-5-5-5-5-5-5-4-4-4-4-4-4-5-5-5-7-7/9---------------------------|
E|-------------3-0-3-0-3-0-2-0-2-0-2-0---------5/7---------------------------|

THEN REPEAT THE WHOLE VERSE 1 TIME

THEN REPEAT THE WHOLE CHORUS 2 TIMES

THEN PLAY THE BRIDGE 1 TIME AND PLAY THE VERSE UNTIL THE SONG FADES OUT


************************************

| /   slide up
| \   slide down
| h   hammer-on
| p   pull-off
| ~   vibrato
| +   harmonic
| x   Mute note
| b   Bend
| pb  Pre-bend
| br  Bend release
| pbr Pre-bend release
| brb Bend release bend

************************************
Добавлено: 29.03.2016
Другие материалы по этой песне:
  • Аккорды и текст

Страница создана 29.03.2016
http://primanota.ru/bass-drum-of-death/electric-chords.htm
Привет, Гость.
Предлагаем пройти революционный курс по гитаре.
Подарок от PrimaNota.Ru, забирай!