PrimaNota.ru - самый крупный в мире бесплатный архив песенных текстов, аккордов, табулатур и нот


Bass Drum Of Death - For Blood - таба, видео

Регистрация Запомнить меня
Войти через:  Facebook Google Twitter Vk Yandex Mail.ru

Bass Drum Of Death - For Blood - таба, видео

Печатать
Просмотров: 62
-------------------------------------------------------------------------------
                             For Blood - Bass Drum Of Death
-------------------------------------------------------------------------------
Tabbed by: BassmanBlazek
E-mail: zlogar.blaz9@gmail.com

Tuning:EADGBe

INTRO

e|------------------------------------------------------------------------------|
B|-------------------------------------PLAYED 2 TIMES---------------------------|
G|----------11-11b-11b-11b------------------------------------------------------|
D|-11-11-11-11-11b-11b-11b-9-9/11-11-9------------------------------------------|
A|-11-11-11-9--9-b-9-b-9-b-9-9/11-11-9------------------------------------------|
E|-9--9--9-----------------7-7/9--9--7------------------------------------------|

VERSE

e|------------------------------------------------------------------------------|
B|-------------------------------------PLAYED 3 TIMES---------------------------|
G|----------11-11b-11b-11b------------------------------------------------------|
D|-11-11-11-11-11b-11b-11b-9-9/11-11-9------------------------------------------|
A|-11-11-11-9--9-b-9-b-9-b-9-9/11-11-9------------------------------------------|
E|-9--9--9-----------------7-7/9--9--7------------------------------------------|

e|----------------------------------------------------------------------------|
B|-------------------------------------PLAYED 1 TIME--------------------------|
G|--------------9-------------------------------------------------------------|
D|-11-11-11-2-2-9-9-9-11-11-9-------------------------------------------------|
A|-11-11-11-2-2-7-9-9-11-11-9-------------------------------------------------|
E|-9--9--9--0-0---7-7-9--9--7-------------------------------------------------|

PRE-CHORUS

e|------------------------------------------------------------------------------|
B|-------------------------------------PLAYED 3 TIMES---------------------------|
G|----------11-11b-11b-11b------------------------------------------------------|
D|-11-11-11-11-11b-11b-11b-9-9/11-11-9------------------------------------------|
A|-11-11-11-9--9-b-9-b-9-b-9-9/11-11-9------------------------------------------|
E|-9--9--9-----------------7-7/9--9--7------------------------------------------|

e|-------------------------------------------------------------------------------|
B|-------------------------------------PLAYED 1 TIME-----------------------------|
G|--------------9----------------------------------------------------------------|
D|-11-11-11-2-2-9-9-9-11-11-11-9-------------------------------------------------|
A|-11-11-11-2-2-7-9-9-11-11-11-9-------------------------------------------------|
E|-9--9--9--0-0---7-7-9--9--9--7-------------------------------------------------|

CHORUS

e|-------------------------------------------------------------------------------|
B|-----------------------------------------------------------PLAYED 2 TIMES------|
G|------------------------------------11-11-11-11-11-11-11-----------------------|
D|-11-11-11-11-11-11-11-9-9-9-9-9-9-9-11-11-11-11-11-11-11-11-11-11-11-11-11-9---|
A|-11-11-11-11-11-11-11-9-9-9-9-9-9-9-9--9--9--9--9--9--9--11-11-11-11-11-11-9---|
E|-9--9--9--9--9--9--9--7-7-7-7-7-7-7----------------------9--9--9--9--9--9--7---|

WHOLE INTRO PLAYED 1 TIME 

WHOLE VERSE PLAYED 1 TIME

WHOLE PRE-CHORUS PLAYED 1 TIME

WHOLE CHORUS PLAYED 1 TIME

BRIDGE

e|--------------------------------------------------------------------------|
B|-------------------------------PLAYED 4 TIMES-----------------------------|
G|----------------7-7-7-7---------------------------------------------------|
D|--4-4-4-4-4-4-4-7-7-7-7-7-9-9---------------------------------------------|
A|--4-4-4-4-4-4-4-5-5-5-5-7-9-9---------------------------------------------|
E|--2-2-2-2-2-2-2---------5-7-7---------------------------------------------|

INTERLUDE 

e|------------------------------------------------------------------------------|
B|-------------------------------------PLAYED 2 TIMES---------------------------|
G|----------x-11-11-------------------------------------------------------------|
D|-11-11-11-x-11-11-9-9/11-11-9-------------------------------------------------|
A|-11-11-11-x-9--9--9-9/11-11-9-------------------------------------------------|
E|-9--9--9----------7-7/9--9--7-------------------------------------------------|

OUTRO

e|-------------------------------------------------------------------------------|
B|-----------------------------------------------------------PLAYED 2 TIMES------|
G|------------------------------------11-11-11-11-11-11-11-----------------------|
D|-11-11-11-11-11-11-11-9-9-9-9-9-9-9-11-11-11-11-11-11-11-11-11-11-11-11-11-9---|
A|-11-11-11-11-11-11-11-9-9-9-9-9-9-9-9--9--9--9--9--9--9--11-11-11-11-11-11-9---|
E|-9--9--9--9--9--9--9--7-7-7-7-7-7-7----------------------9--9--9--9--9--9--7---|



************************************

| /   slide up
| \   slide down
| h   hammer-on
| p   pull-off
| ~   vibrato
| +   harmonic
| x   Mute note
| b   Bend
| pb  Pre-bend
| br  Bend release
| pbr Pre-bend release
| brb Bend release bend

************************************
Добавлено: 29.03.2016
Другие материалы по этой песне:
  • Аккорды и текст

Страница создана 29.03.2016
http://primanota.ru/bass-drum-of-death/for-blood-chords.htm
Привет, Гость.
Предлагаем пройти революционный курс по гитаре.
Подарок от PrimaNota.Ru, забирай!