PrimaNota.ru - самый крупный в мире бесплатный архив песенных текстов, аккордов, табулатур и нот


Bass Drum Of Death - White Fright - таба, бас-таба, видео

Регистрация Запомнить меня
Войти через:  Facebook Google Twitter Vk Yandex Mail.ru

Bass Drum Of Death - White Fright - таба, бас-таба, видео

Печатать
Просмотров: 110
-------------------------------------------------------------------------------
                             WHITE FRIGHT - Bass Drum Of Death
-------------------------------------------------------------------------------
Tabbed by:
E-mail:

Tuning:
I very well could be wrong as I only really change from bass to guitar this week but I think I'm right.
I used the performance from Austin Pysche Fest '13 to crack the code.

Verse:
e|---------------------------------------------------------------------------|
B|---------------------------------------------------------------------------|
G|-9-9-----------------------------------------------------------------------|
D|-9-9--9-9--5-5--9-9--------------------------------------------------------|
A|-7-7--9-9--5-5--9-9--------------------------------------------------------|
E|------7-7--3-3--7-7--------------------------------------------------------|

Chorus:
e|---------------------------------------------------------------------------|
B|---------------------------------------------------------------------------|
G|---------------------------------------------------------------------------|
D|-9-9-9-9-9-9-9-9-?---------------------------------------------------------|
A|-9-9-9-9-9-9-9-9-?---------------------------------------------------------|
E|-7-7-7-7-7-7-7-7-3---------------------------------------------------------|
I really have no idea what notes those are but if you have enough distortion who fuckin' cares?

That third part:
e|---------------------------------------------------------------------------|
B|---------------------------------------------------------------------------|
G|---------------------------------------------------------------------------|
D|-9-9-9-9-9-14-14-14-14-14-5-5-5-5-5-5-3-3-3--------------------------------|
A|-9-9-9-9-9-14-14-14-14-14-5-5-5-5-5-5-3-3-3--------------------------------|
E|-7-7-7-7-7-12-12-12-12-12-3-3-3-3-3-3-1-1-1--------------------------------|

Both guitars do the same thing for most of the song, but with the lead guitar I'd strongly advise
you to do your own thing and add a crazy solo or some shit. If you want to add bass to your little 
ensemble just mirror the bass notes of the chords.


************************************

| /   slide up
| \   slide down
| h   hammer-on
| p   pull-off
| ~   vibrato
| +   harmonic
| x   Mute note
| b   Bend
| pb  Pre-bend
| br  Bend release
| pbr Pre-bend release
| brb Bend release bend

************************************
Добавлено: 07.10.2014
Другие материалы по этой песне:
  • Аккорды и текст

Страница создана 07.10.2014
http://primanota.ru/bass-drum-of-death/white-fright-chords.htm
Привет, Гость.
Предлагаем пройти революционный курс по гитаре.
Подарок от PrimaNota.Ru, забирай!