PrimaNota.ru - самый крупный в мире бесплатный архив песенных текстов, аккордов, табулатур и нот


Bass Drum Of Death - I Wanna Be Forgotten - таба, видео

Регистрация Запомнить меня
Войти через:  Facebook Google Twitter Vk Yandex Mail.ru

Bass Drum Of Death - I Wanna Be Forgotten - таба, видео

Печатать
Просмотров: 88
-------------------------------------------------------------------------------
                   I Wanna Be Forgotten - Bass Drum Of Death
-------------------------------------------------------------------------------
Tabbed by: BassmanBlazek
E-mail: zlogar.blaz9@gmail.com

Tuning: EADGBe

Start it off with:

e|---------------|
B|---------------|
G|--9~~~---------|
D|--9~~~---------|
A|--7~~~---------|
E|---------------|

e|---------------PLAYED 2 TIMES--|
B|-------------------------------|
G|---------------99999999999999--|
D|--10-1010-5-55-99999999999999--|
A|--10-1010-5-55-77777777777777--|
E|--8--8-8--3-33-----------------|

VERSE

e|---------------------------------------------------------------------------|
B|---------------------------------PLAYED 5 TIMES----------------------------|
G|---------------99999999999999----------------------------------------------|
D|--10-1010-5-55-99999999999999----------------------------------------------|
A|--10-1010-5-55-77777777777777----------------------------------------------|
E|--8--8-8--3-33-------------------------------------------------------------|

CHORUS

e|---------------------------------------------------------------------------|
B|---------------------------------------------------------------------------|
G|-------------------------------------PLAYED 4 TIMES------------------------|
D|--1010101010-55555-1212121212-77777----------------------------------------|
A|--1010101010-55555-1212121212-77777----------------------------------------|
E|--8-8-8-8-8--33333-1010101010-55555----------------------------------------|

POST CHORUS

e|---------------------------------------------------------------------------|
B|---------------------------------PLAYED 4 TIMES----------------------------|
G|---------------999999------------------------------------------------------|
D|--10-1010-5-55-999999------------------------------------------------------|
A|--10-1010-5-55-777777------------------------------------------------------|
E|--8--8-8--3-33-------------------------------------------------------------|

THEN PLAY THE WHOLE VERSE, CHORUS AND POST CHORUS 1 TIME.


************************************

| /   slide up
| \   slide down
| h   hammer-on
| p   pull-off
| ~   vibrato
| +   harmonic
| x   Mute note
| b   Bend
| pb  Pre-bend
| br  Bend release
| pbr Pre-bend release
| brb Bend release bend

************************************
Добавлено: 29.03.2016
Другие материалы по этой песне:
  • Аккорды и текст

Страница создана 29.03.2016
http://primanota.ru/bass-drum-of-death/i-wanna-be-forgotten-chords.htm
Привет, Гость.
Предлагаем пройти революционный курс по гитаре.
Подарок от PrimaNota.Ru, забирай!