PrimaNota.ru - самый крупный в мире бесплатный архив песенных текстов, аккордов, табулатур и нот


Bass Drum Of Death - Youre Haunting Me - таба, видео

Регистрация Запомнить меня
Войти через:  Facebook Google Twitter Vk Yandex Mail.ru

Bass Drum Of Death - Youre Haunting Me - таба, видео

Печатать
Просмотров: 44
This song is from the "High School Roaches EP" and is without a doubt one of the coolest songs overall.
I don't know official lyrics but I think these are correct, along with this tab! ALSO, 
this song is slightly
tuned sharp, so if you're standard and have a capo on the first fret, it's dead on. But 
with the capo on,
don't view that as the first fret, it's just a tuning placement instead of tuning slightly sharp.

Intro: x4 Something like that... Most "confusing part". Emphasize the B and e strings at points...
e|12-12-12-12-12-12-12-12-12-12-12-12-12-12-12-|
B|13-13-13-13-13-13-13-13-13-13-13-12-12-12-12-|
G|14-14-14-14-14-14-14-14-14-14-14-14-14-14-14-|
D|---------------------------------------------|
A|---------------------------------------------|
E|12-12-12-12-12-12-12-12-12-12-12-12-12-12-12-|

Pre-Verse:
e|--------------------------------------------------------------------|
B|--------------------------------------------------------------------|
G|8-8-8-8-8-8-8-8-8-8-8-8-8-8-8-8-8-8-8-8-8-8-8-8-8-8-8-8--6--6--7--8-|
D|9-9-9-9-9-9-9-9-9-9-9-9-9-9-9-9-9-9-9-9-9-9-9-9-9-9-9-9--7--7--8--9-|
A|9-9-9-9-9-9-9-9-9-9-9-9-9-9-9-9-9-9-9-9-9-9-9-9-9-9-9-9--7--7--8--9-|
E|7-7-7-7-7-7-7-7-7-7-7-7-7-7-7-7-7-7-7-7-7-7-7-7-7-7-7-7--5--5--6--7-|

Verse:
e|--------------------------------------------------------------------------------------|
B|--------------------------------------------------------------------------------------|
G|88888888888888888888888888888888-11111111111111111111111111111111-888888888888-/86-68-|
D|99999999999999999999999999999999-12121212121212121212121212121212-999999999999-/97-79-|
A|99999999999999999999999999999999-12121212121212121212121212121212-999999999999-/97-79-|
E|77777777777777777777777777777777-10101010101010101010101010101010-777777777777-/75-57-|
                                   ^This is a 'D' chord, UG wants me to space it but I'd have to
take up a ton of room as well as make this tab harder to read.

e|-------------------------------------------------------------------------------------|
B|-------------------------------------------------------------------------------------|
G|8888888888888888888888888888888-11111111111111111111111111111111-88888888888888888888
D|9999999999999999999999999999999-12121212121212121212121212121212-99999999999999999999
A|9999999999999999999999999999999-12121212121212121212121212121212-99999999999999999999
E|7777777777777777777777777777777-10101010101010101010101010101010-77777777777777777777


Pre-Chorus: x3
e|---------------------------------------------------------|
B|12-12-12-12-12----12-12-12-12-12-------------------------|
G|12-12-12-12-12-11-12-12-12-12-12-11-11/------------------|
D|12-12-12-12-12-12-12-12-12-12-12-12-12/14-14-14-12-99999-|
A|10-10-10-10-10-12-10-10-10-10-10-12-12/14-14-14-12-99999-|
E|---------------10----------------10-10/12-12-12-10-77777-|

Chorus:
e|------------------------------------------------------------------|
B|------------------------------------------------------------------|
G|6-4-44444-6-66666-4-44444-6-66666-4-44444-6-66666-4-44444-6-66666-|
D|7-5-55555-7-77777-5-55555-7-77777-5-55555-7-77777-5-55555-7-77777-|
A|7-5-55555-7-77777-5-55555-7-77777-5-55555-7-77777-5-55555-7-77777-|
E|5-3-33333-5-55555-3-33333-5-55555-3-33333-5-55555-3-33333-5-55555-|

Interlude: x3
e|12-12-12-12-12-12-12-12-12-12-12-12-12-12-12-|
B|13-13-13-13-13-13-13-13-13-13-13-12-12-12-12-|
G|14-14-14-14-14-14-14-14-14-14-14-14-14-14-14-|
D|---------------------------------------------|
A|---------------------------------------------|
E|12-12-12-12-12-12-12-12-12-12-12-12-12-12-12-|

then...

e|12-12-12-12-12-12-12-12-12-12-12--------|
B|13-13-13-13-13-13-13-13-13-13-13--------|
G|14-14-14-14-14-14-14-14-14-14-14--------|
D|----------------------------------------|
A|----------------------------------------|
E|12-12-12-12-12-12-12-12-12-12-12--------|

Outro: x4
e|---------------------------------------|
B|------------------12-------------------|
G|13-13-13-13-13-13-12-12-12-10-10-10-10-|
D|14-14-14-14-14-14-12-12-12-11-11-11-11-|
A|14-14-14-14-14-14-10-10-10-11-11-11-11-|
E|12-12-12-12-12-12----------9--9--9--9--|

Intro
Pre-Verse
Verse
Pre-chorus
Chorus
Interlude
Verse
Pre-chorus
Chorus
Outro


LYRICS: (What I know)

I wake up in the morning
with every word I say,
"you're gonna walk out, you're gonna walk out"

even in the mean time, everything I see is so [(hard to me) or (hollow to me)]

but you, I never want you haunting me
I never want you haunting me

I never sleep at midnight
with everything I know,
is (its) gonna walk out, is (its) gonna walk out

even in the mean time, everything I see is so [(hard to me) or (hollow to me)]

but you, I never want you haunting me
I never want you haunting me

Haunting me
Добавлено: 20.10.2015
Другие материалы по этой песне:
  • Аккорды и текст

Страница создана 20.10.2015
http://primanota.ru/bass-drum-of-death/youre-haunting-me-chords.htm
Привет, Гость.
Предлагаем пройти революционный курс по гитаре.
Подарок от PrimaNota.Ru, забирай!