PrimaNota.ru - самый крупный в мире бесплатный архив песенных текстов, аккордов, табулатур и нот


Bass Drum Of Death - Burns My Eye - таба, видео

Регистрация Запомнить меня
Войти через:  Facebook Google Twitter Vk Yandex Mail.ru

Bass Drum Of Death - Burns My Eye - таба, видео

Печатать
Просмотров: 43
-------------------------------------------------------------------------------
                             Burn's My Eye - Bass Drum Of Death
-------------------------------------------------------------------------------
Tabbed by: BassmanBlazek
E-mail: zlogar.blaz9@gmail.com

Tuning: EADGBe

INTRO

e|----------------------------------------------------------------------------------|
B|-----------------------------------PLAYED 4 TIMES---------------------------------|
G|-----------7-777777-9-9999999999--------------------------------------------------|
D|--9-999999-7-777777-9-9999999999--------------------------------------------------|
A|--9-999999-5-555555-7-7777777777--------------------------------------------------|
E|--7-777777------------------------------------------------------------------------|

VERSE

e|-------------------------------------------------------------|
B|-----------------------------------PLAYED 2 TIMES------------|
G|-----------7-777777-9-9999999999-----------------------------|
D|--9-999999-7-777777-9-9999999999-----------------------------|
A|--9-999999-5-555555-7-7777777777-----------------------------|
E|--7-777777---------------------------------------------------|

e|----------------------------------------PLAYED 1 TIME----------------------|
B|---------------------------------------------------------------------------|
G|-----------7-777777----------9-999999-----------7-777777-9-999999999-------|
D|--9-999999-7-777777-5-555555-9-999999--9-999999-7-777777-9-999999999-------|
A|--9-999999-5-555555-5-555555-7-777777--9-999999-5-555555-7-777777777-------|
E|--7-777777----------3-333333-----------7-777777----------------------------|

CHORUS

e|---------------------------------------------------------------------------|
B|-------------------------------PLAYED 3 TIMES------------------------------|
G|---------------999\7-77777777----------------------------------------------|
D|--4-4444444444-999\7-77777777----------------------------------------------|
A|--4-4444444444-777\5-55555555----------------------------------------------|
E|--2-2222222222-------------------------------------------------------------|

e|---------------------------------------------------------------------------|
B|-------------------------------PLAYED 1 TIME-------------------------------|
G|---------------------------------------------------------------------------|
D|--4-4444444444-7-7777777777------------------------------------------------|
A|--4-4444444444-7-7777777777------------------------------------------------|
E|--2-2222222222-5-5555555555------------------------------------------------|

POST CHORUS

e|---------------------------------------------------------------------------|
B|-----------------------------------PLAYED 4 TIMES--------------------------|
G|-----------7-777777-9-9999999999-------------------------------------------|
D|--9-999999-7-777777-9-9999999999-------------------------------------------|
A|--9-999999-5-555555-7-7777777777-------------------------------------------|
E|--7-777777-----------------------------------------------------------------|

THEN PLAY WHOLE VERSE, CHORUS AND POST CHORUS 1 TIME



************************************

| /   slide up
| \   slide down
| h   hammer-on
| p   pull-off
| ~   vibrato
| +   harmonic
| x   Mute note
| b   Bend
| pb  Pre-bend
| br  Bend release
| pbr Pre-bend release
| brb Bend release bend

************************************
Добавлено: 29.03.2016
Другие материалы по этой песне:
  • Аккорды и текст

Страница создана 29.03.2016
http://primanota.ru/bass-drum-of-death/burns-my-eye-chords.htm
Привет, Гость.
Предлагаем пройти революционный курс по гитаре.
Подарок от PrimaNota.Ru, забирай!