PrimaNota.ru - самый крупный в мире бесплатный архив песенных текстов, аккордов, табулатур и нот


Bass Drum Of Death - Sin Is In 10 - таба, видео

Регистрация Запомнить меня
Войти через:  Facebook Google Twitter Vk Yandex Mail.ru

Bass Drum Of Death - Sin Is In 10 - таба, видео

Печатать
Просмотров: 146
Rad song, especially the bridge. Live version for the most part. (Practically the same.)

Intro: F# (Feedback and lowdrive.)

Verse:
e|--------------------------------------------------------------------|
B|--------------------------------------------------------------------|
G|3-3-3---6-6-6---8-8-8---11-11-11-11-8-1010101010108-6-6-6-8-4-4-4-6-|
D|4-4-4---7-7-7---9-9-9---12-12-12-12-9-1111111111119-7-7-7-9-5-5-5-7-|
A|4-4-4---7-7-7---9-9-9---12-12-12-12-9-1111111111119-7-7-7-9-5-5-5-7-|
E|2-2-2-0-5-5-5-0-7-7-7-0-10-10-10-10-7-9-9-9-9-9-9-7-5-5-5-7-3-3-3-5-|

Lead:
e|----------------------------12--12-----12--|b
B|19 (x16) /12 (x16) /14 (x14)--14--14-14----|
G|-------------------------------------------|
D|-------------------------------------------|
A|-------------------------------------------|
E|-------------------------------------------|

-----------------------------------------------------------------------

Chorus:

e|-------------------------------|--|
B|-------------------------------|--|
G|10101010101010101-1-1-1-1-6-6-5|3-|
D|11111111111111112-2-2-2-2-7-7-6|4-|
A|11111111111111112-2-2-2-2-7-7-6|4-|
E|9-9-9-9-9-9-9-9-0-0-0-0-0-5-5-4|2-| (This is on the fourth repeat.)

------------------------------------------------------------------------

Bridge:
e|------------------|
B|------------------|
G|3~------333~------|
D|4~------444~------|
A|4~------444~------|
E|2~------222~------|

John's Guitar (BASS) (POG Octaver - Down One Octave to emulate bass) <- Sickest thing ever...
e|------------------------------|
B|------------------------------|
G|------------------------------|
D|----4-2-----------------------|
A|------------------------------|
E|2-2-----5bh6h5-5bh6h5--5-5-3-2|
          ^ bh = bending hammer on

Lead/solo (Josh - runs it through a wet-sig phaser/flange/chorus.) (Also the feedback 
leading to this solo...)
e|-----------------------------------|  |--------------------------------------|
B|-----------------------------10-11b|  |12--12-10-12--12-10-12--13b-12-10-----|
G|11--11-9-11--11-9-11--11-9-11------|x3|---------------------------------11-9-|
D|-----------------------------------|  |--------------------------------------|
A|-----------------------------------|  |--------------------------------------|
E|-----------------------------------|  |--------------------------------------|
Добавлено: 20.10.2015
Другие материалы по этой песне:
  • Аккорды и текст

Страница создана 20.10.2015
http://primanota.ru/bass-drum-of-death/sin-is-in-10-chords.htm
Привет, Гость.
Предлагаем пройти революционный курс по гитаре.
Подарок от PrimaNota.Ru, забирай!