PrimaNota.ru - самый крупный в мире бесплатный архив песенных текстов, аккордов, табулатур и нот


Bass Drum Of Death - Left For Dead - таба, видео

Регистрация Запомнить меня
Войти через:  Facebook Google Twitter Vk Yandex Mail.ru

Bass Drum Of Death - Left For Dead - таба, видео

Печатать
Просмотров: 59
-------------------------------------------------------------------------------
                             Left For Dead - Bass Drum Of Death
-------------------------------------------------------------------------------
Tabbed by: BassmanBlazek
E-mail: zlogar.blaz9@gmail.com

Tuning: EADGBe

INTRO
e|----------------------------------|
B|----------------------------------|
G|----------------------------------|
D|--7~~~~~~----7~~~~~~--------------|
A|--7~~~~~~----7~~~~~~--------------|
E|--5~~~~~~----5~~~~~~--------------|

VERSE
e|----XXXXXXXXX-----------------------------------------------------------------------|
B|----XXXXXXXXX----------------------------------PLAYED 4 TIMES-----------------------|
G|----XXXXXXXXX-----------------------------------------------------------------------|
D|--7-XXXXXXXXX---------------------5-------------------------------------------------|
A|--7-XXXXXXXXX---5-3---------3h5/7---------------------------------------------------|
E|--5-XXXXXXXXX-5-----5-3-3h5---------------------------------------------------------|

CHORUS
e|---------------------------------------------------------------------------|
B|-----------------------------------PLAYED 2 TIMES--------------------------|
G|----9-77---9-77---9-77-555555----------------------------------------------|
D|--7-9-77-7-9-77-7-9-77-555555----------------------------------------------|
A|--7-7-55-7-7-55-7-7-55-333333----------------------------------------------|
E|--5------5------5----------------------------------------------------------|

POST CHORUS
e|---------------------------------------------------------------------------|
B|-----------------------------------------------PLAYED 2 TIMES--------------|
G|-----5-7-7b-----5-7-7b-----5-7-7b-------5----------------------------------|
D|-7-7--------7-7--------7-7--------5-4-3-5-6-7------------------------------|
A|-7----------7----------7----------5-4-3-3-6-7------------------------------|
E|-5----------5----------5----------3-2-1---4-5------------------------------|

THEN PLAY THE WHOLE VERSE,CHORUS AND POST CHORUS 1 TIME

BRIDGE 

(Not sure what effects he is using at this part but messing around with reverb and a whammy bar works fine.)

e|---------------------------------------------------------------------------|
B|---------------------------------------Do these 3 variations---------------|
G|------------------9b-----------7b------a couple of times and---------------|
D|7~~~~~~----7~~~~~~------7~~~~~~--------it will sound alright.--------------|
A|---------------------------------------------------------------------------|
E|---------------------------------------------------------------------------|

THEN PLAY THE CHORUS 1 MORE TIME

OUTRO

e|------------------------------------------------------------------------|
B|--------------------------------------PLAYED 4 TIMES--------------------|
G|------------------------------------------------------------------------|
D|--7--------------------5------------------------------------------------|
A|--7--5-3---------3h5/7--------------------------------------------------|
E|--5-----5-3-3h5--------------------------------------------------------|


************************************

| /   slide up
| \   slide down
| h   hammer-on
| p   pull-off
| ~   vibrato
| +   harmonic
| x   Mute note
| b   Bend
| pb  Pre-bend
| br  Bend release
| pbr Pre-bend release
| brb Bend release bend

************************************
Добавлено: 29.03.2016
Другие материалы по этой песне:
  • Аккорды и текст

Страница создана 29.03.2016
http://primanota.ru/bass-drum-of-death/left-for-dead-chords.htm
Привет, Гость.
Предлагаем пройти революционный курс по гитаре.
Подарок от PrimaNota.Ru, забирай!