PrimaNota.ru - самый крупный в мире бесплатный архив песенных текстов, аккордов, табулатур и нот


Bass Drum Of Death - Lose My Mind - таба, видео

Регистрация Запомнить меня
Войти через:  Facebook Google Twitter Vk Yandex Mail.ru

Bass Drum Of Death - Lose My Mind - таба, видео

Печатать
Просмотров: 66
-------------------------------------------------------------------------------
                             Lose My Mind - Bass Drum Of Death
-------------------------------------------------------------------------------
Tabbed by: BassmanBlazek
E-mail: zlogar.blaz9@gmail.com

Tuning: EADGBe

INTRO/VERSE

e|---------------------------------------------------------------------------|
B|---------------------------------------------------------------------------|
G|--9-999-7------------------------------------------------------------------|
D|----------9-999-7-9-7-5----------------------------------------------------|
A|------------------------7-7777-7-7777--------------------------------------|
E|---------------------------------------------------------------------------|

PRE-CHORUS

e|---------------------------------------------------------------------------|
B|---------------------------------------------------------------------------|
G|-9-999-7----------9-999-7----------------777---------------777-------------|
D|---------9----------------9---------5-55-777-2-2-2-2--5-55-777-2-2-2-2-----|
A|-----------7-7777-----------7-7777--5-55-555-2-2-2-2--5-55-555-2-2-2-2-----|
E|------------------------------------3-33-----0-0-0-0--3-33-----0-0-0-0-----|

CHORUS

e|---------------------------------------------------------------------------|
B|---------------------------------------------------------------------------|
G|------777--------------777-------------------------------------------------|
D|-7-77-777-2-2-2-2-7-77-777-2-2-2-2-----------------------------------------|
A|-7-77-555-2-2-2-2-7-77-555-2-2-2-2-----------------------------------------|
E|-5-55-----0-0-0-0-5-55-----0-0-0-0-----------------------------------------|

INTRO/VERSE

e|---------------------------------------------------------------------------|
B|---------------------------------------------------------------------------|
G|--9-999-7------------------------------------------------------------------|
D|----------9-999-7-9-7-5----------------------------------------------------|
A|------------------------7-7777-7-7777--------------------------------------|
E|---------------------------------------------------------------------------|

PRE-CHORUS

e|---------------------------------------------------------------------------|
B|---------------------------------------------------------------------------|
G|-9-999-7----------9-999-7----------------777---------------777-------------|
D|---------9----------------9---------5-55-777-2-2-2-2--5-55-777-2-2-2-2-----|
A|-----------7-7777-----------7-7777--5-55-555-2-2-2-2--5-55-555-2-2-2-2-----|
E|------------------------------------3-33-----0-0-0-0--3-33-----0-0-0-0-----|

CHORUS

e|---------------------------------------------------------------------------|
B|---------------------------------------------------------------------------|
G|------777--------------777-------------------------------------------------|
D|-7-77-777-2-2-2-2-7-77-777-2-2-2-2-----------------------------------------|
A|-7-77-555-2-2-2-2-7-77-555-2-2-2-2-----------------------------------------|
E|-5-55-----0-0-0-0-5-55-----0-0-0-0-----------------------------------------|

BRIDGE

e|-----------------------------------------------------------------------------|
B|-----------------------------------------------------------------------------|
G|-9-9-999-11-99-9-9-11-99-9-9-11-99-9-9-13-13-13-13-14-1313-13-13-14----------|
D|-----------------------------------------------------------------------------|
A|-----------------------------------------------------------------------------|
E|-----------------------------------------------------------------------------|

e|-----------------------------------------------------------------------------|
B|-----------------------------------------------------------------------------|
G|-1313-13-13-14-1313-13-16-16-16-16-18-1616-16-16-18-1616-16-16-18-1616-16-16-|
D|-----------------------------------------------------------------------------|
A|-----------------------------------------------------------------------------|
E|-----------------------------------------------------------------------------|

e|---------------------------------------------------------------------------|
B|---------------------------------------------------------------------------|
G|-13~13~13~13~13~13~13~13~13~13~13~13~--------------------------------------|
D|---------------------------------------------------------------------------|
A|---------------------------------------------------------------------------|
E|---------------------------------------------------------------------------|


PRE-CHORUS

e|---------------------------------------------------------------------------|
B|---------------------------------------------------------------------------|
G|-9-999-7----------9-999-7----------------777---------------777-------------|
D|---------9----------------9---------5-55-777-2-2-2-2--5-55-777-2-2-2-2-----|
A|-----------7-7777-----------7-7777--5-55-555-2-2-2-2--5-55-555-2-2-2-2-----|
E|------------------------------------3-33-----0-0-0-0--3-33-----0-0-0-0-----|

CHORUS

e|---------------------------------------------------------------------------|
B|---------------------------------------------------------------------------|
G|------777--------------777-------------------------------------------------|
D|-7-77-777-2-2-2-2-7-77-777-2-2-2-2-----------------------------------------|
A|-7-77-555-2-2-2-2-7-77-555-2-2-2-2-----------------------------------------|
E|-5-55-----0-0-0-0-5-55-----0-0-0-0-----------------------------------------|

INTRO/VERSE

e|---------------------------------------------------------------------------|
B|---------------------------------------------------------------------------|
G|--9-999-7------------------------------------------------------------------|
D|----------9-999-7-9-7-5----------------------------------------------------|
A|------------------------7-7777-7-7777--------------------------------------|
E|---------------------------------------------------------------------------|


************************************

| /   slide up
| \   slide down
| h   hammer-on
| p   pull-off
| ~   vibrato
| +   harmonic
| x   Mute note
| b   Bend
| pb  Pre-bend
| br  Bend release
| pbr Pre-bend release
| brb Bend release bend

************************************
Добавлено: 29.03.2016
Вам также может быть интересно:
Другие материалы по этой песне:
  • Аккорды и текст

Страница создана 29.03.2016
http://primanota.ru/bass-drum-of-death/lose-my-mind-chords.htm
Привет, Гость.
Предлагаем пройти революционный курс по гитаре.
Подарок от PrimaNota.Ru, забирай!