PrimaNota.ru - самый крупный в мире бесплатный архив песенных текстов, аккордов, табулатур и нот


Bass Drum Of Death - Young Pros - таба, видео

Регистрация Запомнить меня
Войти через:  Facebook Google Twitter Vk Yandex Mail.ru

Bass Drum Of Death - Young Pros - таба, видео

Печатать
Просмотров: 43
-------------------------------------------------------------------------------
                             Young Pros - Bass Drum Of Death
-------------------------------------------------------------------------------
Tabbed by: BassmanBlazek
E-mail: zlogar.blaz9@gmail.com

Tuning: EADGBe

VERSE

e|---------------------------------------------------------------------------|
B|-9-9-9-9---------9-9-9-9-------------------------9-9-------9-9-9--PLAYED---|
G|-9-9-9-9-10-1010-9-9-9-9-10-1010-6-6-8-8-6-6-8-8-9-9-4-6-4-9-9-9--2-TIMES--|
D|-9-9-9-9-11-1111-9-9-9-9-11-1111-7-7-9-9-7-7-9-9-9-9-5-7-5-9-9-9-----------|
A|-7-7-7-7-11-1111-7-7-7-7-11-1111-7-7-9-9-7-7-9-9-7-7-5-7-5-7-7-7-----------|
E|---------99-9-9----------99-9-9--5-5-7-7-5-5-7-7-----3-5-3-----------------|

PRE-CHORUS

e|---------------------------------------------------------------------------|
B|-----------------------------------------------------------------PLAYED----|
G|-----------------------------------------------------------------1 TIME----|
D|-111111117-7-7-7-111111117-7-9-9-111111117-7-7-7-9-9-9-9-9-9-9-9-----------|
A|-111111117-7-7-7-111111117-7-9-9-111111117-7-7-7-9-9-9-9-9-9-9-9-----------|
E|-9-9-9-9-5-5-5-5-9-9-9-9-5-5-7-7-9-9-9-9-5-5-5-5-7-7-7-7-7-7-7-7-----------|

CHORUS

e|---------------------------------------------------------------------------|
B|-----------------------------------------------PLAYED 1 TIME---------------|
G|-99999--------99999--------99999-------------------------------------------|
D|-99999111111119999911111111999991111111199999------------------------------|
A|-77777111111117777711111111777771111111199999------------------------------|
E|------9-9-9-9------9-9-9-9------9-9-9-9-77777------------------------------|

POST CHORUS


e|---------------------------------------------------------------------------|
B|-9-9-9-9---------9-9-9-9-------------------------9-9-9---9-9-9-PLAYED------|
G|-9-9-9-9-10-1010-9-9-9-9-10-1010-6-6-8-8-6-6-8-8-9-9--9--9-9-9-1 TIME------|
D|-9-9-9-9-11-1111-9-9-9-9-11-1111-7-7-9-9-7-7-9-9-9-9---9-9-9-9-------------|
A|-7-7-7-7-11-1111-7-7-7-7-11-1111-7-7-9-9-7-7-9-9-7-7-----7-7-7-------------|
E|---------99-9-9----------99-9-9--5-5-7-7-5-5-7-7---------------------------|

THEN PLAY THE WHOLE VERSE 1 TIME, PRE CHORUS 1 TIME, AND AN EXTENDED CHORUS.




************************************

| /   slide up
| \   slide down
| h   hammer-on
| p   pull-off
| ~   vibrato
| +   harmonic
| x   Mute note
| b   Bend
| pb  Pre-bend
| br  Bend release
| pbr Pre-bend release
| brb Bend release bend

************************************
Добавлено: 29.03.2016
Другие материалы по этой песне:
  • Аккорды и текст

Страница создана 29.03.2016
http://primanota.ru/bass-drum-of-death/young-pros-chords.htm
Привет, Гость.
Предлагаем пройти революционный курс по гитаре.
Подарок от PrimaNota.Ru, забирай!