PrimaNota.ru - самый крупный в мире бесплатный архив песенных текстов, аккордов, табулатур и нот


Bass Drum Of Death - Bad Reputation - таба, видео

Регистрация Запомнить меня
Войти через:  Facebook Google Twitter Vk Yandex Mail.ru

Bass Drum Of Death - Bad Reputation - таба, видео

Печатать
Просмотров: 110
-------------------------------------------------------------------------------
                             BAD REPUTATION - Bass Drum Of Death
-------------------------------------------------------------------------------
Tabbed by:sir-rex-a-lo@live.com

Tuning:Standard

(Intro)(Starts with feedback)
e|------------------------------------------------------------|
B|------------------------------------------------------------|
G|-7~------7-7--7-7~---7-7--7-7--7-7--7-7--7-7--7-7---7-7~----|
D|-7~------7-7--7-7~---7-7--7-7--7-7--7-7--7-7--7-7---7-7~----|
A|-0~------0-0--0-0~---0-0--0-0--0-0--0-0--0-0--0-0---0-0~----|
E|------------------------------------------------------------|

e|------------------------------------|
B|-----------------8-8-8-10-10-10-8-8-|
G|-9-9-9-9-9-9-9-9-7-7-7-7--7--7--7-7-|x8
D|-7-7-7-7-7-7-7-7--------------------|
A|------------------------------------|
E|------------------------------------|

(Verse)
e|---------------------------------|
B|---------------------------------|
G|---------------------------------|
D|-7-7-7-7-7-7-7-7-7-7-7-7-7-7-7-7-|x8
A|-7-7-7-7-7-7-7-7-5-5-5-5-5-5-5-5-|
E|-5-5-5-5-5-5-5-5-5-5-5-5-5-5-5-5-|

(Pre-Chorus)
e|---------------------------|
B|---------------------------|
G|---------------------------|x3
D|-9-9--7-7--4-4-4-4-4-4-4-4-|
A|-9-9--5-5--4-4-4-4-4-4-4-4-|
E|-7-7--5-5--2-2-2-2-2-2-2-2-|

e|-------------------------------------------------|
B|-------------------------------------------------|
G|-------------------------------------------------|
D|-12-12-12-12-12-12-12-12-10-10-10-10-10-10-10-10-|
A|-12-12-12-12-12-12-12-12-10-10-10-10-10-10-10-10-|
E|-10-10-10-10-10-10-10-10-8--8--8--8--8--8--8--8--|

(Chorus)
e|------------------------------------|
B|-----------------8-8-8-10-10-10-8-8-|
G|-9-9-9-9-9-9-9-9-7-7-7-7--7--7--7-7-|x8
D|-7-7-7-7-7-7-7-7--------------------|
A|------------------------------------|
E|------------------------------------|

Play Verse
Play Pre-Chorus
Play Chorus

(Solo)(Rhythm plays verse)
e|-------------------------------------------------------------------------|
B|-------------------------------------------------------------------------|
G|-7b8-7b8-7b8-7b8-7b8-7b8-7b8-7b8-9b10-9b10-9b10-9b10-9b10-9b10-9b10-9b10-|
D|-------------------------------------------------------------------------|
A|-------------------------------------------------------------------------|
E|-------------------------------------------------------------------------|

e|-----------------------------------------------------------------------------------------------------------|
B|-----------------------------------------------------------------------------------------------------------|
G|-12b13-12b13-12b13-12b13-12b13-12b13-12b13-12b13-14b15-14b15-14b15-14b15-14b15-14b15-14b15-14b15\(Slide up)|
D|-----------------------------------------------------------------------------------------------------------|
A|-----------------------------------------------------------------------------------------------------------|
E|-----------------------------------------------------------------------------------------------------------|

(Solo Cont.)(Rhythm plays pre chorus)
e|-------------------------------------------------------------------------------------------------------------|
B|-15-17-15-17-15-17-15-17b18----15-17-15-17-15-17-15-17b18----15-17-15-17-15-17-15-17b18-15~----13~\(Slide Up)|
G|-------------------------------------------------------------------------------------------------------------|
D|-------------------------------------------------------------------------------------------------------------|
A|-------------------------------------------------------------------------------------------------------------|
E|-------------------------------------------------------------------------------------------------------------|

Play Chorus

(End on)
e|-------|
B|-------|
G|-------|
D|-7~----|(Feedback)
A|-7~----|
E|-5~----|

************************************

| /   slide up
| \   slide down
| h   hammer-on
| p   pull-off
| ~   vibrato
| +   harmonic
| x   Mute note
| b   Bend
| pb  Pre-bend
| br  Bend release
| pbr Pre-bend release
| brb Bend release bend

************************************
Добавлено: 20.10.2015
Другие материалы по этой песне:
  • Аккорды и текст

Страница создана 20.10.2015
http://primanota.ru/bass-drum-of-death/bad-reputation-chords.htm
Привет, Гость.
Предлагаем пройти революционный курс по гитаре.
Подарок от PrimaNota.Ru, забирай!