PrimaNota.ru - самый крупный в мире бесплатный архив песенных текстов, аккордов, табулатур и нот


Annihilator - The Trend - текст песни, таба, видео

Регистрация Запомнить меня
Войти через:  Facebook Google Twitter Vk Yandex Mail.ru

Annihilator - The Trend - текст песни, таба, видео

Печатать
Просмотров: 326
Hey there, i have a few parts of the song, im not a pro in tabbing but , it gets pretty close:

intro : this keeps repeating

e|----------------------------------------------------------------------------|
B|-14-------14-------14----14-------14-------14----12-----12-----12--15----15-|
G|----11-11----11-11----11----11-11----11-11----11---11-11--11-11--11--11-11--|
D|----------------------------------------------------------------------------|
A|----------------------------------------------------------------------------|
E|----------------------------------------------------------------------------|


e|------------------------------|
B|------15----------------------|
G|-11-11--11--------------------|
D|------------------------------|
A|------------------------------|
E|------------------------------|

2mins and 18 secs:
e|------------------------------|
B|------------------------------|
G|------------------------------|
D|------------------------------|
A|8---------8-----8---------5/7-|
E|6-0-0-0-0-6-0-0-6-0-0-0-0-3/5-|


4mins 52: same as alice in hell ? but it adds backwards ..
e|-----------------------15-15--------------------------------------|
B|-----------------------17-17--------------------------------------|
G|------------------------------------------------------------------|
D|-10\9------------9/10--------10\9-----------------------10\9------|
A|-8 \7--7\6--6/7--7/8---------8 \7--7\6------------------8 \7--7\6-|
E|-------5\4--4/5--------------------5\4--0-0-0-0-0-0-0-0-------5\4-|


e|-----------15-15-----------------------------|
B|-----------17-17-----------------------------|
G|---------------------------------------------|
D|------9/10--------10\9-----------------------|
A|-6/7--7/8---------8 \7--7\6------------------|
E|-4/5--------------------5\4--0-0-000-0-0-000-|
Добавлено: 27.06.2012
Другие материалы по этой песне:

Страница создана 29.03.2012
http://primanota.ru/annihilator/the-trend-chords.htm
Привет, Гость.
Предлагаем пройти революционный курс по гитаре.
Подарок от PrimaNota.Ru, забирай!