PrimaNota.ru - самый крупный в мире бесплатный архив песенных текстов, аккордов, табулатур и нот


Annihilator - Wtyd - текст песни, таба, бас-таба, видео

Регистрация Запомнить меня
Войти через:  Facebook Google Twitter Vk Yandex Mail.ru

Annihilator - Wtyd - текст песни, таба, бас-таба, видео

Печатать
Просмотров: 342
Get ready because this is a big tab. 
This is a HTML version of the powertab that is on here.

Standard Tuning

Intro
       D5 A5    E5      N.C.
 4/4
       Gtr I
  H    E. S +E  E   +S  S  S S S E S +S  S S S S S S S
|-----------------|------------------------------------|
|-----------------|------------------------------------|
|------7--------9-|-(9)--------------------------------|
|------7--7-(7)-9-|-(9)--------------------------------|
|------5--7-(7)-7-|-(7)-7--5---5-7-------7-5---5-7-8---|
|---------5-(5)---|----------7-----0-(0)-----7-------0-|
|
|      Gtr II
| H    E. S +E  E   +S  E.     Q      H
|-----------------|------------------------------------|
|-----------------|------------------------------------|
|------7--------9-|-(9)--------------------------------|
|------7--7-(7)-9-|-(9)--------------------------------|
|------5--7-(7)-7-|-(7)--------------------------------|
|---------5-(5)---|------------------------------------|


                 D5 A5    E5
  +S  S S S S E. E. S +E  E
|---------------------------|
|---------------------------|
|----------------7--------9-|
|----------------7--7-(7)-9-|
|-----7-5---5-7--5--7-(7)-7-|
|-(0)-----7---------5-(5)---|
|
|  H             E. S +E  E
|---------------------------|
|---------------------------|
|----------------7--------9-|
|----------------7--7-(7)-9-|
|----------------5--7-(7)-7-|
|-------------------5-(5)---|


      N.C.                                            D5 A5    E5
  +S  S  S S S E S +S  S S S S S S S   +S  S S S S E. E. S +E  E
|------------------------------------|---------------------------|
|------------------------------------|---------------------------|
|-(9)--------------------------------|----------------7--------9-|
|-(9)--------------------------------|----------------7--7-(7)-9-|
|-(7)-7--5---5-7-------7-5---5-7-8---|-----7-5---5-7--5--7-(7)-7-|
|----------7-----0-(0)-----7-------0-|-(0)-----7---------5-(5)---|
|
| +S  E.     Q      H                   H             E. S +E  E
|------------------------------------|---------------------------|
|------------------------------------|---------------------------|
|-(9)--------------------------------|----------------7--------9-|
|-(9)--------------------------------|----------------7--7-(7)-9-|
|-(7)--------------------------------|----------------5--7-(7)-7-|
|------------------------------------|-------------------5-(5)---|


      N.C.
  +S  S  S S S E S +S  S S S S S S S
|--------------------------------------|
|--------------------------------------|
|-(9)----------------------------------|
|-(9)----------------------------------|
|-(7)-7--5---5-7-------7-5---5-7-8-----|
|----------7-----0-(0)-----7-------0---|
|
| +S  E.     Q      H
|--------------------------------------|
|--------------------------------------|
|-(9)----------------------------------|
|-(9)----------------------------------|
|-(7)----------------------------------|
|--------------------------------------|


                 D5 A5    E5                        D5 A5    E5
  +S  S S S S E. E. S +E  E   +Q   +H.         H    E. S +E  E
|---------------------------|----------------|------------------|
|---------------------------|----------------|------------------|
|----------------7--------9-|-(9)--(9)\------|------7--------9--|
|----------------7--7-(7)-9-|-(9)--(9)\------|------7--7-(7)-9--|
|-----7-5---5-7--5--7-(7)-7-|-(7)--(7)\------|------5--7-(7)-7--|
|-(0)-----7---------5-(5)---|----------------|---------5-(5)----|
|
|  H             E. S +E  E   +Q   +H.         H    E. S +E  E
|---------------------------|----------------|------------------|
|---------------------------|----------------|------------------|
|----------------7--------9-|-(9)--(9)\------|------7--------9--|
|----------------7--7-(7)-9-|-(9)--(9)\------|------7--7-(7)-9--|
|----------------5--7-(7)-7-|-(7)--(7)\------|------5--7-(7)-7--|
|-------------------5-(5)---|----------------|---------5-(5)----|


    N.C.                                              D5 A5    E5
    Gtrs I, II
    PM----------------------------------------------|
    S S S S S S S S S S S S S S S S   S S S S S S S S E. S +E  E
||----------------------------------|-----------------------------||
||o---------------------------------|----------------------------o||
||----------------------------------|-----------------7--------9--||
||----------------------------------|-----------------7--7-(7)-9--||
||o---------------------------------|-----------------5--7-(7)-7-o||
||--0-0-0-0-0-0-0-0-0-0-0-0-0-0-0-0-|-0-0-0-0-0-0-0-0----5-(5)----||


      N.C.
                PM--|                               PM--|
  +S  S S S S S S S S S S S S S S S   +S  S S S S S S S S S S S S S S S
|-----------------------------------|-----------------------------------|
|-----------------------------------|-----------------------------------|
|-(9)-------------------------------|-----------------------------------|
|-(9)-------------------------------|-----------------------------------|
|-(7)-7-5---5-7-------7-5---5-7-8---|-----7-5---5-7-------7-5---5-7-8---|
|---------7-----0-0-0-----7-------0-|-(0)-----7-----0-0-0-----7-------0-|


                PM--|                               PM--|
  +S  S S S S S S S S S S S S S S S   +S  S S S S S S S S S S S S S E
|-----------------------------------|----------------------------------|
|-----------------------------------|----------------------------------|
|-----------------------------------|----------------------------------|
|-----------------------------------|----------------------------------|
|-----7-5---5-7-------7-5---5-7-8---|-----7-5---5-7-------7-5---5-7-8--|
|-(0)-----7-----0-0-0-----7-------0-|-(0)-----7-----0-0-0-----7--------|


        E5  D5            E5                        D5        E5F5 E5
  Gtr I
                              ~~~~~~~~~~~~~~
  +E    E   Q       E     E   Q         +E      E   Q       E E  E E
|-------------------------------------|------------------------------|
|-------------------------------------|------------------------------|
|-------9---7-------7-----9---9-------|-(9)-----9---7-------7-9-10-9-|
|-------9---7-------7-----9---9-------|-(9)-----9---7-------7-9-10-9-|
|-(8)---7---5-------5-----7---7-------|-(7)-----7---5-------5-7--8-7-|
|-------------------------------------|------------------------------|
|
| Gtr II
|  PM-----------------------------------------------------|
|  S  S S S S S S S T T S S S S S S S    T  T S S S S S S S E E  E E
|-------------------------------------|------------------------------|
|-------------------------------------|------------------------------|
|-------------------------------------|---------------------7-9-10-9-|
|-------------------------------------|---------------------7-9-10-9-|
|-------------------------------------|---------------------5-7--8-7-|
|--0--0-0-0-0-0-0-0-0-0-0-0-0-0-0-0-0-|--0--0-0-0-0-0-0-0-0----------|


          D5            E5                      D5        E5F5 E5
                            ~~~~~~~~~~~~~~
  +E  E   Q       E     E   Q         +E    E   Q       E E  E E
|-----------------------------------|----------------------------|
|-----------------------------------|----------------------------|
|-(9)-9---7-------7-----9---9-------|-(9)---9---7-------7-9-10-9-|
|-(9)-9---7-------7-----9---9-------|-(9)---9---7-------7-9-10-9-|
|-(7)-7---5-------5-----7---7-------|-(7)---7---5-------5-7--8-7-|
|-----------------------------------|----------------------------|
|
|     PM----------------------------------------------|
| +E  S S S S S S T T S S S S S S S    S  S S S S S S S E E  E E
|-----------------------------------|----------------------------|
|-----------------------------------|----------------------------|
|-(9)-------------------------------|-------------------7-9-10-9-|
|-(9)-------------------------------|-------------------7-9-10-9-|
|-(7)-------------------------------|-------------------5-7--8-7-|
|-----0-0-0-0-0-0-0-0-0-0-0-0-0-0-0-|--0--0-0-0-0-0-0-0----------|


 1st Verse
  Q=136
      N.C.
  Gtrs I, II
                PM--|                               PM--|
  +S  S S S S S S S S S S S S S S S   +S  S S S S S S S S S S S S S S S
|-----------------------------------|-----------------------------------|
|-----------------------------------|-----------------------------------|
|-(9)-------------------------------|-----------------------------------|
|-(9)-------------------------------|-----------------------------------|
|-(7)-7-5---5-7-------7-5---5-7-8---|-----7-5---5-7-------7-5---5-7-8---|
|---------7-----0-0-0-----7-------0-|-(0)-----7-----0-0-0-----7-------0-|


                PM--|                               PM--|
  +S  S S S S S S S S S S S S S S S   +S  S S S S S S S S S S S S S S S
|-----------------------------------|-----------------------------------|
|-----------------------------------|-----------------------------------|
|-----------------------------------|-----------------------------------|
|-----------------------------------|-----------------------------------|
|-----7-5---5-7-------7-5---5-7-8---|-----7-5---5-7-------7-5---5-------|
|-(0)-----7-----0-0-0-----7-------0-|-(0)-----7-----0-0-0-----7---7-3-0-|


                PM--|                               PM--|
  +S  S S S S S S S S S S S S S S S   +S  S S S S S S S S S S S S S S S
|-----------------------------------|-----------------------------------|
|-----------------------------------|-----------------------------------|
|-----------------------------------|-----------------------------------|
|-----------------------------------|-----------------------------------|
|-----7-5---5-7-------7-5---5-7-8---|-----7-5---5-7-------7-5---5-7-8---|
|-(0)-----7-----0-0-0-----7-------0-|-(0)-----7-----0-0-0-----7-------0-|


                PM--|                               PM--|
  +S  S S S S S S S S S S S S S S S   +S  S S S S S S S S S S S S S S S
|-----------------------------------|-----------------------------------||
|-----------------------------------|-----------------------------------||
|-----------------------------------|-----------------------------------||
|-----------------------------------|-----------------------------------||
|-----7-5---5-7-------7-5---5-7-8---|-----7-5---5-7-------7-5---5-------||
|-(0)-----7-----0-0-0-----7-------0-|-(0)-----7-----0-0-0-----7---7-3-0-||


 Chorus
  D5            E5            D5E5          D5
  H    Q   E  S S   +S  S E S E S +S  S E S E.
|-----------------|----------------------------|
|-----------------|----------------------------|
|-7----7\--7\-7-9-|-(9)-9-9---7-9-(9)-9-9---7--|
|-7----7\--7\-7-9-|-(9)-9-9---7-9-(9)-9-9---7--|
|-5----5\--5\-5-7-|-(7)-7-7---5-7-(7)-7-7---5--|
|-----------------|---------3-------------3----|


                E5            D5E5          D5
  H    Q   E  S S   +S  S E S E S +S  S E S E.
|-----------------|-----------------------------|
|-----------------|-----------------------------|
|-7----7\--7\-7-9-|-(9)-9-9---7-9-(9)-9-9---7---|
|-7----7\--7\-7-9-|-(9)-9-9---7-9-(9)-9-9---7---|
|-5----5\--5\-5-7-|-(7)-7-7---5-7-(7)-7-7---5---|
|-----------------|---------3-------------3-----|


  G5   A5     Bb5  C#5    N.C.      G5  N.C.      G5
                          PM------|     PM------|
  H    H      H    H      S S S S S E S S S S S S E S
|-----------|-----------|-----------------------------|
|-----------|-----------|-----------------------------|
|-----------|------6----|-----------------------------|
|-5----7----|-8----6----|-----------5-5-----------5-5-|
|-5----7----|-8----4----|-----------5-5-----------5-5-|
|-3----5----|-6---------|-0-0-0-0-0-3-3-0-0-0-0-0-3-3-|


  N.C.      G5  N.C.
  PM------|     PM------|
  S S S S S E S S S S S S S  E
|-------------------------------||
|-------------------------------||
|-------------------------------||
|-----------5-5-----------------||
|-----------5-5-----------------||
|-0-0-0-0-0-3-3-0-0-0-0-0-3s12\-||


   2nd Verse
    $
    N.C.
                PM--|                               PM--|
    S S S S S S S S S S S S S S S S   +S  S S S S S S S S S S S S S S S
||----------------------------------|------------------------------------|
||o---------------------------------|------------------------------------|
||----------------------------------|------------------------------------|
||----------------------------------|------------------------------------|
||o---7-5---5-7-------7-5---5-7-8---|-----7-5---5-7-------7-5---5-7-8----|
||--0-----7-----0-0-0-----7-------0-|-(0)-----7-----0-0-0-----7-------0--|


                PM--|                               PM--|
  +S  S S S S S S S S S S S S S S S   +S  S S S S S S S S S S S S S S S
|-----------------------------------|------------------------------------||
|-----------------------------------|-----------------------------------o||
|-----------------------------------|------------------------------------||
|-----------------------------------|------------------------------------||
|-----7-5---5-7-------7-5---5-7-8---|-----7-5---5-7-------7-5---5-------o||
|-(0)-----7-----0-0-0-----7-------0-|-(0)-----7-----0-0-0-----7---7-3-0--||


 Chorus
  D5            E5            D5E5          D5
  H    Q   E  S S   +S  S E S E S +S  S E S E.
|-----------------|----------------------------|
|-----------------|----------------------------|
|-7----7\--7\-7-9-|-(9)-9-9---7-9-(9)-9-9---7--|
|-7----7\--7\-7-9-|-(9)-9-9---7-9-(9)-9-9---7--|
|-5----5\--5\-5-7-|-(7)-7-7---5-7-(7)-7-7---5--|
|-----------------|---------3-------------3----|


                E5            D5E5          D5
  H    Q   E  S S   +S  S E S E S +S  S E S E.
|-----------------|-----------------------------|
|-----------------|-----------------------------|
|-7----7\--7\-7-9-|-(9)-9-9---7-9-(9)-9-9---7---|
|-7----7\--7\-7-9-|-(9)-9-9---7-9-(9)-9-9---7---|
|-5----5\--5\-5-7-|-(7)-7-7---5-7-(7)-7-7---5---|
|-----------------|---------3-------------3-----|


              To Coda
  G5   A5     Bb5  C#5    N.C.      G5  N.C.      G5
                          PM------|     PM------|
  H    H      H    H      S S S S S E S S S S S S E S
|-----------|-----------|-----------------------------|
|-----------|-----------|-----------------------------|
|-----------|------6----|-----------------------------|
|-5----7----|-8----6----|-----------5-5-----------5-5-|
|-5----7----|-8----4----|-----------5-5-----------5-5-|
|-3----5----|-6---------|-0-0-0-0-0-3-3-0-0-0-0-0-3-3-|


  N.C.      G5  N.C.    G5
  PM------|     PM----|
  S S S S S E S S S S S e e
|----------------------------|
|----------------------------|
|----------------------------|
|-----------5-5---------5-5--|
|-----------5-5---------5-5--|
|-0-0-0-0-0-3-3-0-0-0-0-3-3--|


 Bridge
  Q=132
  (Bm/E)  (Em7)     (Fsus2)
  Gtr III
  E E E E E E E E   E E E E +E  E Q
|-----------------|------------------|
|-------7-8-------|------------------|
|-----7-----7-----|-------0-(0)---0--|
|---9---------9---|-----3------------|
|-7---------------|---3---------3----|
|---------------0-|-1----------------|
|
| Gtr IV
| E E E E E E E E   E E E E +E  E Q
|-----------------|------------------|
|-------7-8-------|------------------|
|-----7-----7-----|-------0-(0)---0--|
|---9---------9---|-----3------------|
|-7---------------|---3---------3----|
|---------------0-|-1----------------|


  (Bm/E)  (Em7)         (Fsus2)
            |-3-|
  E E E E E S S S E E   E E E E +E  E Q
|---------------------|--------------------|
|-------7-8-7-8-7-----|--------------------|
|-----7-----------7---|-------0-(0)---0----|
|---9-----------------|-----3--------------|
|-7-------------------|---3---------3------|
|-------------------0-|-1------------------|
|
|           |-3-|
| E E E E E S S S E E   E E E E +E  E Q
|-------5-7-5-7-5-----|--------------------|
|-----7-----------7---|--------------------|
|---7-----------------|-------0-(0)---0----|
|-5-------------------|-----3--------------|
|---------------------|---3---------3------|
|-------------------0-|-1------------------|


  (Bm/E)  (Em7)     (Fsus2)
  E E E E E E E E   E E E E +E  E Q
|-----------------|------------------|
|-------7-8-------|------------------|
|-----7-----7-----|-------0-(0)---0--|
|---9---------9---|-----3------------|
|-7---------------|---3---------3----|
|---------------0-|-1----------------|
|
| E E E E E E E E   E E E E +E  E Q
|-----------------|------------------|
|-------7-8-------|------------------|
|-----7-----7-----|-------0-(0)---0--|
|---9---------9---|-----3------------|
|-7---------------|---3---------3----|
|---------------0-|-1----------------|


  (Bm/E)  (Em7)         (Fsus2)
            |-3-|
  E E E E E S S S E E   E E E E E  E  E E
|---------------------|---------------------||
|-------7-8-7-8-7-----|---------------------||
|-----7-----------7---|-----2-0-2-----0-2---||
|---9-----------------|------------3--------||
|-7-------------------|---3-----------------||
|-------------------0-|-1-------------------||
|
|           |-3-|
| E E E E E S S S E E   E E E E E +E  E E
|-------5-7-5-7-5-----|-----1-0-1-(1)-0-1---||
|-----7-----------7---|---------------------||
|---7-----------------|---2-----------------||
|-5-------------------|-3-------------------||
|---------------------|---------------------||
|-------------------0-|---------------------||


  D5/E5 F5 G#5  F5E5D5/E5        D5/E5 F5 G#5F5E5D5/A
               5/4              6/4
  Gtrs I, II
  Q  Q  Q  Q    E E Q  H.        Q  Q  Q  Q  E E Q
|-------------|----------------|--------------------||
|-3-----------|-----3----------|-3---------------3--||
|-2-----------|-----2----------|-2---------------2--||
|-0--2--3--6--|-3-2-0--2-------|-0--2--3--6--3-2-0--||
|-0--2--3--6--|-3-2-0--2-------|-0--2--3--6--3-2-0--||
|----0--1--4--|-1-0----0-------|----0--1--4--1-0----||


  E5    N.C.
 7/4
  Gtr I
                                     ~~~
            |-3-|                                |--3--|
  H     E E S S S E E E Q  +Q        H     E  E  S  S  S  E  E  E  Q   +Q
|--------------------------------|--------------------------------------------|
|-------7-8-7h8p7---7------------|---------7--8--7h=8p=7-----7----------------|
|-9---------------9---9-8--(8)\--|--/9--------------------9-----9--8---(8)\---|
|--------------------------------|--------------------------------------------|
|--------------------------------|--------------------------------------------|
|--------------------------------|--------------------------------------------|
|
| Gtr II
|                                    ~~~
|                                                |--3--|
| Q  H      W                        H     E  E  S  S  S  E  E  E  Q   +Q
|--------------------------------|--------------------------------------------|
|--------------------------------|--------10-12-10h12p10----10----------------|
|--------------------------------|-/12-------------------12----12-11--(11)\---|
|-2------------------------------|--------------------------------------------|
|-2------------------------------|--------------------------------------------|
|-0------------------------------|--------------------------------------------|


 4/4
  E E E  E  E  E  E E   E E E E +H
|---------------------|-------0-(0)----|
|--------3-----3------|---0-1----------|
|-2-4-5-----5-----5-4-|-2--------------|
|---------------------|----------------|
|---------------------|----------------|
|---------------------|----------------|
|
| E E E  E  E  E  E E   E E E E +H
|-----0-[2]-0-[2]-0---|-------0-(0)----|
|-1-3---------------3-|---0-1----------|
|---------------------|-2--------------|
|---------------------|----------------|
|---------------------|----------------|
|---------------------|----------------|


    Q=144
    PM-----------------------------------------|
    S S  S  S  S  S  S  S  S  S  S  S  S  S  S  S
||-------------------------------------------------||
||o-----------------------------------------------o||
||------------------12-12-------14-14-------12-12--||
||------11-11-10-10-------12-12-------10-10--------||
||o-9-9-------------------------------------------o||
||-------------------------------------------------||
|
|   PM-----------------------------------------|
|   S S  S  S  S  S  S  S  S  S  S  S  S  S  S  S
||-------------------------------------------------||
||o-----------------------------------------------o||
||------------------12-12-------14-14-------12-12--||
||------11-11-10-10-------12-12-------10-10--------||
||o-9-9-------------------------------------------o||
||-------------------------------------------------||


  Gtr V
  S S  S  S  S  S  S  S  S  S  S  S  S  S  S  S
|------8-----------8----------------12----------|
|-8-9-----9--8--9-----9--8--9s12-13----13-12-13-|
|-----------------------------------------------|
|-----------------------------------------------|
|-----------------------------------------------|
|-----------------------------------------------|
|
| Gtrs I, II
| PM---------------------------------------------
| S S  S  S  S  S  S  S  S  S  S  S  S  S  S  S
|-----------------------------------------------|
|-----------------------------------------------|
|-----------------12-12-------14-14-------12-12-|
|-----11-11-10-10-------12-12-------10-10-------|
|-9-9-------------------------------------------|
|-----------------------------------------------|


  S S  S  S  S  S  S  S  S  S  S  S  S  S  S  S
|------8-----------8----------------12----------|
|-8-9-----9--8--9-----9--8--9s12-13----13-12-13-|
|-----------------------------------------------|
|-----------------------------------------------|
|-----------------------------------------------|
|-----------------------------------------------|
|
|--------------------------------------------|
| S S  S  S  S  S  S  S  S  S  S  S  S  S  S  S
|-----------------------------------------------|
|-----------------------------------------------|
|-----------------12-12-------14-14-------12-12-|
|-----11-11-10-10-------12-12-------10-10-------|
|-9-9-------------------------------------------|
|-----------------------------------------------|


   E.        S  Q           +E      S  S  S  S  E
|-------------------------------------------10-12----|
|-10--------12-13----------(13)----13-13-13----------|
|----------------------------------------------------|
|----------------------------------------------------|
|----------------------------------------------------|
|----------------------------------------------------|
|
| Gtr I
|  PM-------------------------------------------------
|  S   S  S  S  S  S  S  S   S   S  S  S  S  S  S  S
|----------------------------------------------------|
|----------------------------------------------------|
|--------------------12-12---------14-14-------12-12-|
|--------11-11-10-10--------12--12-------10-10-------|
|--9---9---------------------------------------------|
|----------------------------------------------------|
|
| Gtr II
|  PM-------------------------------------------------
|  S   S  S  S  S  S  S  S   S   S  S  S  S  S  S  S
|----------------------------------------------------|
|----------------------------------------------------|
|--------------------16-16---------17-17-------16-16-|
|--------16-16-14-14--------15--15-------14-14-------|
|-14--14---------------------------------------------|
|----------------------------------------------------|


   E.        S  Q           +Q             Q
|-10----------------------------------------------------|
|-----------13-12----------(12)----------[12]\----------|
|-------------------------------------------------------|
|-------------------------------------------------------|
|-------------------------------------------------------|
|-------------------------------------------------------|
|
|----------------------------------------------------|
|  S   S  S  S  S  S  S  S   S   S  S  S   S    S  S  S
|-------------------------------------------------------|
|-------------------------------------------------------|
|--------------------12-12---------14-14----------12-12-|
|--------11-11-10-10--------12--12--------10---10-------|
|--9---9------------------------------------------------|
|-------------------------------------------------------|
|
|----------------------------------------------------|
|  S   S  S  S  S  S  S  S   S   S  S  S   S    S  S  S
|-------------------------------------------------------|
|-------------------------------------------------------|
|--------------------16-16---------17-17----------16-16-|
|--------16-16-14-14--------15--15--------14---14-------|
|-14--14------------------------------------------------|
|-------------------------------------------------------|


  S S  S  S  S  S  S  S  S  S  S  S  S  S  S  S
|------8-----------8----------------12----------|
|-8-9-----9--8--9-----9--8--9s12-13----13-12-13-|
|-----------------------------------------------|
|-----------------------------------------------|
|-----------------------------------------------|
|-----------------------------------------------|
|
| Gtrs I, II
| PM---------------------------------------------
| S S  S  S  S  S  S  S  S  S  S  S  S  S  S  S
|-----------------------------------------------|
|-----------------------------------------------|
|-----------------12-12-------14-14-------12-12-|
|-----11-11-10-10-------12-12-------10-10-------|
|-9-9-------------------------------------------|
|-----------------------------------------------|


  S S  S  S  S  S  S  S  S  S  S  S  S  S  S  S
|------8-----------8----------------12----------|
|-8-9-----9--8--9-----9--8--9s12-13----13-12-13-|
|-----------------------------------------------|
|-----------------------------------------------|
|-----------------------------------------------|
|-----------------------------------------------|
|
|--------------------------------------------|
| S S  S  S  S  S  S  S  S  S  S  S  S  S  S  S
|-----------------------------------------------|
|-----------------------------------------------|
|-----------------12-12-------14-14-------12-12-|
|-----11-11-10-10-------12-12-------10-10-------|
|-9-9-------------------------------------------|
|-----------------------------------------------|


   E.        S  Q           +E      S  S  S  S  E
|-------------------------------------------10-12----|
|-10--------12-13----------(13)----13-13-13----------|
|----------------------------------------------------|
|----------------------------------------------------|
|----------------------------------------------------|
|----------------------------------------------------|
|
| Gtr I
|  PM-------------------------------------------------
|  S   S  S  S  S  S  S  S   S   S  S  S  S  S  S  S
|----------------------------------------------------|
|----------------------------------------------------|
|--------------------12-12---------14-14-------12-12-|
|--------11-11-10-10--------12--12-------10-10-------|
|--9---9---------------------------------------------|
|----------------------------------------------------|
|
| Gtr II
|  PM-------------------------------------------------
|  S   S  S  S  S  S  S  S   S   S  S  S  S  S  S  S
|----------------------------------------------------|
|----------------------------------------------------|
|--------------------16-16---------17-17-------16-16-|
|--------16-16-14-14--------15--15-------14-14-------|
|-14--14---------------------------------------------|
|----------------------------------------------------|


   E.        S  Q           +H
|-10-------------------------------------------------|
|-----------13-12----------(12)----------------------|
|----------------------------------------------------|
|----------------------------------------------------|
|----------------------------------------------------|
|----------------------------------------------------|
|
|-------------------------------------------------|
|  S   S  S  S  S  S  S  S   S   S  S  S  S  S  S  S
|----------------------------------------------------|
|----------------------------------------------------|
|--------------------12-12---------14-14-------12-12-|
|--------11-11-10-10--------12--12-------10-10-------|
|--9---9---------------------------------------------|
|----------------------------------------------------|
|
|-------------------------------------------------|
|  S   S  S  S  S  S  S  S   S   S  S  S  S  S  S  S
|----------------------------------------------------|
|----------------------------------------------------|
|--------------------16-16---------17-17-------16-16-|
|--------16-16-14-14--------15--15-------14-14-------|
|-14--14---------------------------------------------|
|----------------------------------------------------|


                      Q=136
                F5                    G5        F5
    H      H          W
|------------------||------------------------------|
|-[12]\------------||------------------------------|
|------------------||------------------------------|
|------------------||------------------------------|
|------------------||------------------------------|
|------------------||------------------------------|
|
|                     PM------|   PM|   PM----|
|   H      Q  E  E    S S S S S S S S S S S S S E.
|------------------||------------------------------|
|------------------||------------------------------|
|---------------10-||------------------------------|
|---------------10-||------------------------------|
|--12\-----------8-||-----------3-----5---------3--|
|------------------||-0-0-0-0-0-1-0-0-3-0-0-0-0-1--|
|
|                     PM------|   PM|   PM----|
|   H      Q  E  E    S S S S S S S S S S S S S E.
|------------------||------------------------------|
|------------------||------------------------------|
|---------------10-||------------------------------|
|---------------10-||------------------------------|
|----------------8-||-----------3-----5---------3--|
|--14\-------------||-0-0-0-0-0-1-0-0-3-0-0-0-0-1--|


                  G5        F5
  W
|-------------------------------|
|-------------------------------|
|-------------------------------|
|-------------------------------|
|-------------------------------|
|-------------------------------|
|
| PM------|   PM|   PM----|
| S S S S S S S S S S S S S E.
|-------------------------------|
|-------------------------------|
|-------------------------------|
|-------------------------------|
|-----------3-----5---------3---|
|-0-0-0-0-0-1-0-0-3-0-0-0-0-1---|
|
| PM------|   PM|   PM----|
| S S S S S S S S S S S S S E.
|-------------------------------|
|-------------------------------|
|-------------------------------|
|-------------------------------|
|-----------3-----5---------3---|
|-0-0-0-0-0-1-0-0-3-0-0-0-0-1---|


            F5    G5        F5
  Gtrs I, II
  PM------|   PM|   PM----|
  S S S S S S S S S S S S S E.
|------------------------------|
|------------------------------|
|------------------------------|
|------------------------------|
|-----------3-----5---------3--|
|-0-0-0-0-0-1-0-0-3-0-0-0-0-1--|


                  G5                        F5    G5        F5
  PM------|   PM|   PM----|       PM------|   PM|   PM----|
  S S S S S S S S S S S S S  E.   S S S S S S S S S S S S S E.
|-------------------------------|------------------------------|
|-------------------------------|------------------------------|
|-------------------------------|------------------------------|
|-------------------------------|------------------------------|
|-----------3-----5-------------|-----------3-----5---------3--|
|-0-0-0-0-0-1-0-0-3-0-0-0-0-12\-|-0-0-0-0-0-1-0-0-3-0-0-0-0-1--|


                  G5        F5
  PM------|   PM|   PM----|
  S S S S S S S S S S S S S E.
|------------------------------|
|------------------------------|
|------------------------------|
|------------------------------|
|-----------3-----5---------3--|
|-0-0-0-0-0-1-0-0-3-0-0-0-0-1--|


                  G5        F5                   G5
  PM------|   PM|   PM----|      PM------|   PM|   PM----|
  S S S S S S S S S S S S S E.   S S S S S S S S S S S S  Q
|------------------------------|------------------------------||
|------------------------------|------------------------------||
|------------------------------|------------------------------||
|------------------------------|------------------------------||
|-----------3-----5---------3--|-----------3-----5------------||
|-0-0-0-0-0-1-0-0-3-0-0-0-0-1--|-0-0-0-0-0-1-0-0-3-0-0-0-12\--||


    E5D5    E5            F5 D5    F5               E5D5    E5
  PM    PM|       PM----|      PM|          PM----|     PM|       PM|
  E E E S S E E E S S   E  E E S S  E  E  E S S   E E E S S E E E S S
|---------------------|-------------------------|----------------------|
|---------------------|-------------------------|----------------------|
|---------------------|-------------------------|----------------------|
|---9-7-----9-9-9-----|---10-7-----10-10-10-----|---9-7-----9-9-9------|
|---7-5-----7-7-7-----|----8-5------8--8--8-----|---7-5-----7-7-7------|
|-0-----0-0-------0-0-|-0------0-0----------0-0-|-0-----0-0-------0-0--|


  Bb5  D5     F5      E5D5    E5            F5 D5    F5
                    PM    PM|       PM----|      PM|          PM|
  Q.   E +Q    Q    E E E S S E E E S S   E  E E S S  E  E  E S S
|-----------------|---------------------|-------------------------|
|-----------------|---------------------|-------------------------|
|-----------------|---------------------|-------------------------|
|-3----7-(7)--10--|---9-7-----9-9-9-----|---10-7-----10-10-10-----|
|-1----5-(5)---8--|---7-5-----7-7-7-----|----8-5------8--8--8-----|
|-----------------|-0-----0-0-------0-0-|-0------0-0----------0-0-|


                                            Outro
                             D.S. al Coda    &
    E5D5    E5          Bb5   D5    N.C.(F5) N.C.      G5
  PM    PM|       PM|                 ~~~~   PM------|     PM------|
  E E E S S E E E S S   E E E E E E   Q      S S S S S E S S S S S S E S
|---------------------|-------------------||------------------------------|
|---------------------|-------------------||------------------------------|
|---------------------|-------------[10]--||------------------------------|
|---9-7-----9-9-9-----|-3-3-3-7-7-7-------||-----------5-5-----------5-5--|
|---7-5-----7-7-7-----|-1-1-1-5-5-5-------||-----------5-5-----------5-5--|
|-0-----0-0-------0-0-|-------------------||-0-0-0-0-0-3-3-0-0-0-0-0-3-3--|


  PM------|     PM------|
  S S S S S E S S S S S S E S
|-----------------------------|
|-----------------------------|
|-----------------------------|
|-----------5-5-----------5-5-|
|-----------5-5-----------5-5-|
|-0-0-0-0-0-3-3-0-0-0-0-0-3-3-|


  PM------|     PM------|       PM------|     PM----|
  S S S S S E S S S S S S E S   S S S S S E S S S S S e e
|-----------------------------|----------------------------|
|-----------------------------|----------------------------|
|-----------------------------|----------------------------|
|-----------5-5-----------5-5-|-----------5-5---------5-5--|
|-----------5-5-----------5-5-|-----------5-5---------5-5--|
|-0-0-0-0-0-3-3-0-0-0-0-0-3-3-|-0-0-0-0-0-3-3-0-0-0-0-3-3--|


  PM------|     PM------|
  S S S S S E S S S S S S E S
|-----------------------------|
|-----------------------------|
|-----------------------------|
|-----------5-5-----------5-5-|
|-----------5-5-----------5-5-|
|-0-0-0-0-0-3-3-0-0-0-0-0-3-3-|


            F5    G5        F5              G5
  PM------|   PM|   PM--|         PM------|     PM------|
  S S S S S S S S S S S S S  E.   S S S S S E S S S S S S E S
|-------------------------------|-----------------------------|
|-------------------------------|-----------------------------|
|-------------------------------|-----------------------------|
|---------------------------10--|-----------5-5-----------5-5-|
|-----------3-----5----------8--|-----------5-5-----------5-5-|
|-0-0-0-0-0-1-0-0-3-0-0-0-0-----|-0-0-0-0-0-3-3-0-0-0-0-0-3-3-|


  N.C.                      F5               G5
                                   PM------|     PM------|
  S S S S S S S S S S S S S E.     S S S S S E S S S S S S E S
|------------------------------||------------------------------|
|------------------------------||o-----------------------------|
|---------------------------5--||------------------------------|
|-2-1-0---------------------3--||------------5-5-----------5-5-|
|-------4-3-2-1-0--------------||o-----------5-5-----------5-5-|
|-----------------4-3-2-1-0----||--0-0-0-0-0-3-3-0-0-0-0-0-3-3-|


            F5    G5        F5
  PM------|   PM|   PM--|
  S S S S S S S S S S S S S  E.
|-------------------------------|
|-------------------------------|
|-------------------------------|
|---------------------------10--|
|-----------3-----5----------8--|
|-0-0-0-0-0-1-0-0-3-0-0-0-0-----|


            G5                  N.C.                      F5
  PM------|     PM------|
  S S S S S E S S S S S S E S   S S S S S S S S S S S S S E.  3x
|-----------------------------|-------------------------------||
|-----------------------------|------------------------------o||
|-----------------------------|---------------------------5---||
|-----------5-5-----------5-5-|-2-1-0---------------------3---||
|-----------5-5-----------5-5-|-------4-3-2-1-0--------------o||
|-0-0-0-0-0-3-3-0-0-0-0-0-3-3-|-----------------4-3-2-1-0-----||

Добавлено: 22.02.2012
Другие материалы по этой песне:

Страница создана 22.02.2012
http://primanota.ru/annihilator/wtyd-chords.htm
Привет, Гость.
Предлагаем пройти революционный курс по гитаре.
Подарок от PrimaNota.Ru, забирай!