PrimaNota.ru - самый крупный в мире бесплатный архив песенных текстов, аккордов, табулатур и нот


Annihilator - All For You - текст песни, таба, видео

Регистрация Запомнить меня
Войти через:  Facebook Google Twitter Vk Yandex Mail.ru

Annihilator - All For You - текст песни, таба, видео

Печатать
Просмотров: 240
Авторы музыки: Jeff Waters
Авторы текста: Jeff Waters
Posted By Annihilator 666

Originaly Transcribed by: ol753_3357lo@yahoo.co.uk

Tuning - D A D G B E

(bass intro)

Both Gtrs
play twice
  PM----------------------------|
|------------------------------------|
|------------------------------------|
|------------------------------------|
|------------------------------------|
|-0-2-1-3-2-2-1-0-0-2-1-3-2-2-1-0----|
|-0-2-1-3-2-2-1-0-0-2-1-3-2-2-1-0----|


Gtr 1
play 4 times
  PM----------------------------|
|------------------------------------|
|------------------------------------|
|------------------------------------|
|------------------------------------|
|-0-2-1-3-2-2-1-0-0-2-1-3-2-2-1-0----|
|-0-2-1-3-2-2-1-0-0-2-1-3-2-2-1-0----|


Gtr 2
play 4 times
|-0-----0-----0---0-----0-----0------|
|---4-----4-----4---4-----4-----4----|
|-----4-----4---------4-----4--------|
|------------------------------------|
|------------------------------------|
|------------------------------------|


Both Gtrs
play 4 times
  PM----------------------------|
|------------------------------------|
|------------------------------------|
|------------------------------------|
|------------------------------------|
|-0-2-1-3-2-2-1-0-0-2-1-3-2-2-1-0----|
|-0-2-1-3-2-2-1-0-0-2-1-3-2-2-1-0----|


Gtr 1
play 4 times
  PM----------------------------|
|------------------------------------|
|------------------------------------|
|------------------------------------|
|------------------------------------|
|-0-2-1-3-2-2-1-0-0-2-1-3-2-2-1-0----|
|-0-2-1-3-2-2-1-0-0-2-1-3-2-2-1-0----|


Gtr 2
play 4 times
|-0-----0-----0---0-----0-----0------|
|---4-----4-----4---4-----4-----4----|
|-----4-----4---------4-----4--------|
|------------------------------------|
|------------------------------------|
|------------------------------------|


Both Gtrs
play 8 times
  PM----------------------------|
|------------------------------------|
|------------------------------------|
|------------------------------------|
|------------------------------------|
|-0-2-1-3-2-2-1-0-0-2-1-3-2-2-1-0----|
|-0-2-1-3-2-2-1-0-0-2-1-3-2-2-1-0----|


Gtr 3
play twice
       PM------|       PM------|                 PM------|       PM------|
|----------------------------------------------------------------------------------------|
|-11--------------11--------------11--11-11-12--------------12--------------12--12-12----|
|-11--------------11--------------11--11-11-11--------------11--------------11--11-11----|
|-13--13-13-13-13-13--13-13-13-13-13--13-13-13--13-13-13-13-13--13-13-13-13-13--13-13----|
|----------------------------------------------------------------------------------------|
|----------------------------------------------------------------------------------------|


       PM------|       PM------|                 PM------|       PM------|
|-16--------------16--------------16--16-16----------------------------------------------|
|-16--------------16--------------16--16-16-12--------------12--------------12--12-12----|
|-16--------------16--------------16--16-16-13--------------13--------------13--13-13----|
|-18--18-18-18-18-18--18-18-18-18-18--18-18-14--14-14-14-14-14--14-14-14-14-14--14-14----|
|----------------------------------------------------------------------------------------|
|----------------------------------------------------------------------------------------|


Gtr 1
play twice
     PM----|    PM----|           PM----|    PM----|
|------------------------------------------------------------|
|------------------------------------------------------------|
|----------------------------------------------------4--4----|
|------------------------------4----------4----------4--4----|
|-1----------1-----------------2--2-2-2-2-2--2-2-2-2-1--1----|
|-1--1-1-1-1-1--1-1-1-1-1-3-4--------------------------------|


     PM----|     PM----|           PM----|    PM----|
|-------------------------------------------------------------|
|-------------------------------------------------------------|
|-------------------------------------------------------------|
|-------------------------------------------------------------|
|-6----------4h6---------4h6-4--2----------2----------2--2----|
|-6--6-6-6-6-4h6-6-6-6-6-4h6-4--2--2-2-2-2-2--2-2-2-2-2--2----|


Gtr 2
play twice
|---------------------------------------|
|---------------------------------------|
|----------------------------------4----|
|---------------------4------------4----|
|-1-------------------2------------1----|
|-1------------1-3-4--------------------|


|------------------------------------------|
|------------------------------------------|
|------------------------------------------|
|------------------------------------------|
|-6------------4h6-4--2------------2--2----|
|-6------------4h6-4--2------------2--2----|


Gtr 3 play twice
       PM    PM|       PM    PM|                   PM    PM|       PM    PM|
|--------------------------------------------------------------------------------------------|
|-11-----11-------11-----11-------11-11-11-11-11-----11-------11-----11-------11-11-11-11----|
|-11-----11-------11-----11-------11-11-11-11-11-----11-------11-----11-------11-11-11-11----|
|-13--13-13-13-13-13--13-13-13-13-13-13-13-13-13--13-13-13-13-13--13-13-13-13-13-13-13-13----|
|--------------------------------------------------------------------------------------------|
|--------------------------------------------------------------------------------------------|


       PM    PM|       PM    PM|                   PM    PM|       PM    PM|
|--------------------------------------------------------------------------------------------|
|-11-----11-------11-----11-------11-11-11-11-12-----12-------12-----12-------12-12-12-12----|
|-11-----11-------11-----11-------11-11-11-11-13-----13-------13-----13-------13-13-13-13----|
|-13--13-13-13-13-13--13-13-13-13-13-13-13-13-14--14-14-14-14-14--14-14-14-14-14-14-14-14----|
|--------------------------------------------------------------------------------------------|
|--------------------------------------------------------------------------------------------|


Both Gtrs
play twice
     PM----|    PM----|           PM----|    PM----|
|------------------------------------------------------------|
|------------------------------------------------------------|
|----------------------------------------------------4--4----|
|------------------------------4----------4----------4--4----|
|-1----------1-----------------2--2-2-2-2-2--2-2-2-2-1--1----|
|-1--1-1-1-1-1--1-1-1-1-1-3-4--------------------------------|


     PM----|     PM----|           PM----|    PM----|
|-------------------------------------------------------------|
|-------------------------------------------------------------|
|-------------------------------------------------------------|
|-------------------------------------------------------------|
|-6----------4h6---------4h6-4--2----------2----------2--2----|
|-6--6-6-6-6-4h6-6-6-6-6-4h6-4--2--2-2-2-2-2--2-2-2-2-2--2----|


Both Gtrs
play twice
     PM----|    PM----|           PM----|    PM----|
|------------------------------------------------------------|
|------------------------------------------------------------|
|----------------------------------------------------4--4----|
|------------------------------4----------4----------4--4----|
|-1----------1-----------------2--2-2-2-2-2--2-2-2-2-1--1----|
|-1--1-1-1-1-1--1-1-1-1-1-3-4--------------------------------|


     PM----|     PM----|           PM----|    PM----|
|-------------------------------------------------------------|
|-------------------------------------------------------------|
|-------------------------------------------------------------|
|-------------------------------------------------------------|
|-6----------4h6---------4h6-4--2----------2----------2--2----|
|-6--6-6-6-6-4h6-6-6-6-6-4h6-4--2--2-2-2-2-2--2-2-2-2-2--2----|


Gtr 3
|-----------------------------------------|
|-----------------------------------------|
|-8----10-----11---11S13-----11-----10----|
|-----------------------------------------|
|-6-----8------9----9S11------9------8----|
|-----------------------------------------|


|---------------------------|
|---------------------------|
|-8----10-----10S11----9----|
|---------------------------|
|-6-----8------8S=9----7----|
|---------------------------|


Gtr 3
|-----------------------------------------|
|-----------------------------------------|
|-8----10-----11---11S13-----11-----10----|
|-----------------------------------------|
|-6-----8------9----9S11------9------8----|
|-----------------------------------------|


|--------------------9-9-9-9-9-9-9-9-11-11-11-11-11-11-11-11-12-12-12-12-12-12-12-12--|
|-------------------------------------------------------------------------------------|
|-8----10------11---------------------------------------------------------------------|
|-------------------------------------------------------------------------------------|
|-6-----8-------9---------------------------------------------------------------------|
|-------------------------------------------------------------------------------------|


|-16-16-16-16-16-16-16-16-14b16r14b16r14b16r14----|
|-------------------------------------------------|
|-------------------------------------------------|
|-------------------------------------------------|
|-------------------------------------------------|
|-------------------------------------------------|


Gtr 4
|-----------------------------------------|
|-----------------------------------------|
|-11----13-----15---15S16----15-----13----|
|-----------------------------------------|
|--9----11-----13---13S14----13-----11----|
|-----------------------------------------|


|---------------------12-12-12-12-12-12-12-12-14-14-14-14-14-14-14-14-16-16-16-16-16-16-16-16--|
|----------------------------------------------------------------------------------------------|
|-11----13-----15------------------------------------------------------------------------------|
|----------------------------------------------------------------------------------------------|
|--9----11-----13------------------------------------------------------------------------------|
|----------------------------------------------------------------------------------------------|


|-19-19-19-19-19-19-19-19-18b20r18b20r18b20r18----|
|-------------------------------------------------|
|-------------------------------------------------|
|-------------------------------------------------|
|-------------------------------------------------|
|-------------------------------------------------|


ETC!!!!!!!!!!!!!!!!!!1111111111


Tablature Legend
----------------
 h   - hammer-on
 p   - pull-off
 b   - bend
 pb  - pre-bend
 r   - bend release (if no number after the r, then release immediately)
 /\  - slide into or out of (from/to "nowhere")
 s   - legato slide
 S   - shift slide
  - natural harmonic
[n]  - artificial harmonic
n(n) - tapped harmonic
 ~   - vibrato
 tr  - trill
 T   - tap
 TP  - trem. picking
 PM  - palm muting
\n/  - tremolo bar dip; n = amount to dip
 \n  - tremolo bar down
 n/  - tremolo bar up
/n\  - tremolo bar inverted dip
 =   - hold bend; also acts as connecting device for hammers/pulls
 <>  - volume swell (louder/softer)
 x   - on rhythm slash represents muted slash
 o   - on rhythm slash represents single note slash
Добавлено: 15.07.2013
Другие материалы по этой песне:

Страница создана 29.02.2012
http://primanota.ru/annihilator/all-for-you-chords.htm
Привет, Гость.
Предлагаем пройти революционный курс по гитаре.
Подарок от PrimaNota.Ru, забирай!