PrimaNota.ru - самый крупный в мире бесплатный архив песенных текстов, аккордов, табулатур и нот


Annihilator - Word Salad - текст песни, таба, видео

Регистрация Запомнить меня
Войти через:  Facebook Google Twitter Vk Yandex Mail.ru

Annihilator - Word Salad - текст песни, таба, видео

Печатать
Просмотров: 154
Annihilator - Word Salad

tabbed by 
ol753_357lo@yahoo.co.uk

Tuning - Drop 1/4 of a step


Both Gtrs
|----------|
|----------|
|----------|
|-1p0------|
|-----2----|
|----------|


|-------0-----0---------------------------0-----0--------|
|---------4-----4---------------------------4-----4------|
|-----5-----5-----5---------------------5-----5-----5----|
|---5-------------------------1p0-----5------------------|
|-3-------------------------------2-3--------------------|
|--------------------------------------------------------|


Both Gtrs
|--------------------|
|--------------------|
|--------------------|
|-3p2----------------|
|-1p0-4-6-------6----|
|-----2-4-------4----|



Both Gtrs
|-------|-------0-----0---------------------0-----0-----------------0-----0------|
|-------|---------4-----4---------------------4-----4-----------------4-----4----|
|-------|-----5-----5-----5---------------5-----5-----5-----------5-----5-----5--|
|-1p0---|---5---------------1-0h1p0-----5---------------1p0-----5----------------|
|-----2-|-3-------------------------2-3---------------------2-3------------------|
|-------|------------------------------------------------------------------------|


Both Gtrs
|------------------------------|
|------------------------------|
|------------------------------|
|------------------------------|
|-1p0-4-6------6----------6----|
|-----2-4------4-----*----4----|


Both Gtrs
play twice
  PM  PM        PM       PM        PM  PM       PM
|-------------------------------------------------------------|
|-------------------------------------------------------------|
|-------------------------------------------------------------|
|---6---5---------3-5-6--------------6---5--------3-5-6-------|
|---4---3---------1-3-4----6S8S6-----4---3--------1-3-4-------|
|-3---3---------3--------4-4S6S4---3---3--------3--------[4]--|


Verse
Both Gtrs
  PM------------------|        PM------------|
|-----------------------------------------------------------------|
|-----------------------------------------------------------------|
|-----------------------------------------------------------------|
|-----------------------------------------------------------------|
|-----------------------8---8-------------------------------------|
|-3-3-4-3-3-4-3-3-4-3-3-6---6--3-3-4-3-3-4-3-3-4-6-4-3-4-6-4-3----|


  PM------------------|        PM----------------|
|--------------------------------------------------------------|
|--------------------------------------------------------------|
|--------------------------------------------------------------|
|--------------------------------------------------------------| /3\ triplets
|-----------------------8---8--------------/-3-\----5--6--8----|
|-3-3-4-3-3-4-3-3-4-3-3-6---6--3-3-4-3-3-4-3-3-3-3--3--4--6----|


Both Gtrs
play twice
|------------------------------------------------------|
|------------------------------------------------------|
|-7S8-8-8-------------------7S8-8-8--------------------|
|-5S6-6-6---8-8-------------5S6-6-6---8-8--5-5---------|
|-----------6-6---8-8--5-5------------6-6--3-3--[6]----|
|-----------------6-6--3-3-----------------------------|


Both Gtrs
  PM------------------|        PM------------|
|-----------------------------------------------------------------|
|-----------------------------------------------------------------|
|-----------------------------------------------------------------|
|-----------------------------------------------------------------|
|-----------------------8---8-------------------------------------|
|-3-3-4-3-3-4-3-3-4-3-3-6---6--3-3-4-3-3-4-3-3-4-6-4-3-4-6-4-3----|


  PM------------------|        PM----------------|
|--------------------------------------------------------------|
|--------------------------------------------------------------|
|--------------------------------------------------------------|
|--------------------------------------------------------------| /3\ triplets
|-----------------------8---8--------------/-3-\----5--6--8----|
|-3-3-4-3-3-4-3-3-4-3-3-6---6--3-3-4-3-3-4-3-3-3-3--3--4--6----|


Both Gtrs
play twice
|------------------------------------------------------|
|------------------------------------------------------|
|-7S8-8-8-------------------7S8-8-8--------------------|
|-5S6-6-6---8-8-------------5S6-6-6---8-8--5-5---------|
|-----------6-6---8-8--5-5------------6-6--3-3--[6]----|
|-----------------6-6--3-3-----------------------------|


Chorus
Both Gtrs
play twice
                           PM|   PM|    PM|      PM|      PM|
|--------------------------------------------------------------------|
|--------------------------------------------------------------------|
|--------------------------------------------------------------------|
|--------------------------------------------12-------12-------12----|
|-2--8--7--5-2--2-5--7--8------5-----5-10-11----10-11----10-11-------|
|-0--6--5--3-0--0-3--5--6--3-4---3-4---------------------------------|


                                            PM|
|--------------------------------------------------|
|--------------------------------------------------|
|--------------------------------------------------|
|--------------------------------------------------|
|-2--8--7--5-2--2-5--7--8--7---5-----7---5---------|
|-0--6--5--3-0--0-3--5--6--5---3-----5---3--0-0----|


Both Gtrs
  PM----------|      PM----|
|-------------------------------|
|-------------------------------|
|-------------------------------|
|-------------------------------|
|----------------7S8------------|
|-6-5-3-6-5-3-5--5S6-0-0-0-0-\--|


Repeat Verse


Chorus
Both Gtrs
                           PM|   PM|    PM|      PM|      PM|
|--------------------------------------------------------------------|
|--------------------------------------------------------------------|
|--------------------------------------------------------------------|
|--------------------------------------------12-------12-------12----|
|-2--8--7--5-2--2-5--7--8------5-----5-10-11----10-11----10-11-------|
|-0--6--5--3-0--0-3--5--6--3-4---3-4---------------------------------|

                                            PM|
|--------------------------------------------------|
|--------------------------------------------------|
|--------------------------------------------------|
|--------------------------------------------------|
|-2--8--7--5-2--2-5--7--8--7---5-----7---5---------|
|-0--6--5--3-0--0-3--5--6--5---3-----5---3--0-0----|

                           PM|   PM|    PM|      PM|      PM|
|--------------------------------------------------------------------|
|--------------------------------------------------------------------|
|--------------------------------------------------------------------|
|--------------------------------------------12-------12-------12----|
|-2--8--7--5-2--2-5--7--8------5-----5-10-11----10-11----10-11-------|
|-0--6--5--3-0--0-3--5--6--3-4---3-4---------------------------------|


|------------------------|
|------------------------|
|------------------------|
|------------------------|
|-2--8--7--5-2--2-5-7----|
|-0--6--5--3-0--0-3-5-\--|


Both Gtrs
  PM------------------------------------------------|
|----------------------------------------------------------|
|----------------------------------------------------------|
|----------------------------------------------------------|
|----------------------------------------------------------|
|-----------------------------------------------------8----|
|-0-3-5-6-5-3-5-6-8-6-5-3-5-6-5-3-0-3-4-6-4-3-4-6-8-0-6----|


  PM------------------------------------------------|
|-------------------------------------------------------------|
|-------------------------------------------------------------|
|-------------------------------------------------------------|
|-------------------------------------------------------------|
|-----------------------------------------------------3S=8----|
|-0-3-5-6-5-3-5-6-8-6-5-3-5-6-5-3-0-3-4-6-4-3-4-6-8-0-1S=6----|

PM------------------------------------------------|
|----------------------------------------------------------|
|----------------------------------------------------------|
|----------------------------------------------------------|
|----------------------------------------------------------|
|-----------------------------------------------------8----|
|-0-3-5-6-5-3-5-6-8-6-5-3-5-6-5-3-0-3-4-6-4-3-4-6-8-0-6----|


Both Gtrs
  PM--------|                      PM--------|       PM
|-----------------------------------------------------------|
|-----------------------------------------------------------|
|---------------------10-----9------------------------------|
|-----0-----------0-8----0-7-----------0--------------------|
|-------------7S9------------------------------7---8-7-5----|
|-0-0---5-6-5------------------5p0-0-0---5-6-5-5---6-5-3----|


  PM--------|
|------------------------------|
|------------------------------|
|---------------------10-10----|
|-----0-----------0-8----------|
|-------------7S9--------------|
|-0-0---5-6-5------------------|


Both Gtrs
|-------------------------------------------------------------------|
|-------------------------------------------------------------------|
|-------------------------------------------------------------------|
|-------14------13------12-----11-----10-----9-----8-----7-----6----|
|----12------11------10------9------8------7-----6-----5-----4------|
|-10-------9-------8-------7------6------5-----4-----3-----2--------|


Both Gtrs
play twice
|-------0--------0-------0---------------0------------|
|----------7-------7-------7---------------6----------|
|-----0------0-------0-------0-------0-------0--------|
|---7----------5-------5-------5---6---6-------6------|
|-5------------------------------4---------------4----|
|-----------------------------------------------------|


Both Gtrs
play twice
|-0------0-----0-------0---------------0-------0------------|
|-7--------7-----7-------7---------------6-------6----------|
|-0----------0-----0-------0-------0-------0-------0--------|
|-7------------------5-------5---6---6-------6-------6------|
|-5----------------------------4-----------------------4----|
|-----------------------------------------------------------|


Both Gtrs
          PM             PM             PM             PM
|-------------------------------------------------------------|
|-------------------------------------------------------------|
|-------0--------------0------------0----------------0--------|
|-----0--------------0------------1---1------------0----------|
|---1-------3-3----1-------3-3--3---------3-3----1-------3----|
|-3-------0-1-1--3-------0-1-1----------0-1-1--3-------0-1-\--|


Both Gtrs
play twice, Gtr 3 lead (to be added)
  PM--|                   PM--|
|-------------------------------------------------|
|-------------------------------------------------|
|-------2---4-------------------2---4-------------|
|-------2---4--2---4---2--------2---4--4p2--------|
|--------------2---2---2-------------------5-4----|
|-2-2-2-------------------2-2-2-------------------|


Both Gtrs
  PM--|                   PM--|
|-------------------------------------------------------|
|-------------------------------------------------------|
|-------4---6-------------------4---6-------------------|
|-------4---6--4---6---4--------4---6--6p4---4h6p4------|
|--------------4---4---4-------------------6-------6----|
|-4-4-4-------------------4-4-4-------------------------|


  PM--|                   PM--|        PM---------|
|------------------------------------------------------|
|------------------------------------------------------|
|-------4---6-------------------4---6------------------|
|-------4---6--4---6---4--------4---6------------------|
|--------------4---4---4----------------------2-2-2----|
|-4-4-4-------------------4-4-4--------2-2-2-----------|


Both Gtrs
play twice
  PM--|                   PM--|
|---------------------------------------------------------|
|---------------------------------------------------------|
|-------6---8-------------------6---8---------------------|
|-------6---8--6---8---6--------6---8--9-8-6--------------|
|--------------6---6---6---------------------9-8-6--------|
|-6-6-6-------------------6-6-6--------------------9-8----|


Both Gtrs
  PM--|                   PM--|    PM-----------|
|---------------------------------------------------|
|---------------------------------------------------|
|-------2---4-------------------2-------------------|
|-------2---4--2---4---2--------2-------------------|
|--------------2---2---2----------------------------|
|-2-2-2-------------------2-2-2----2-2-2-2-2-2-2-\--|


  PM--|                   PM--|
|-------------------------------------------------|
|-------------------------------------------------|
|-------2---4-------------------2---4-------------|
|-------2---4--2---4---2--------2---4--4p2--------|
|--------------2---2---2-------------------5-4----|
|-2-2-2-------------------2-2-2-------------------|


Gtr 3
|------12------12------12------12------12------12---------9h10h12p10p9------------------------------|
|-9-10----9-10----9-10----9-10----9-10----9-10----9h10h12--------------12p10p9----------------------|
|------------------------------------------------------------------------------11p9p7---------------|
|-------------------------------------------------------------------------------------11p9p7--------|
|--------------------------------------------------------------------------------------------11-11--|
|---------------------------------------------------------------------------------------------------|


|------12------12------12------12-12S14----12-10-9------------------------------|
|-9-10----9-10----9-10----9-10---------------------12-10-9----------------------|
|----------------------------------------------------------11-9-7---------------|
|-----------------------------------------------------------------11-9-7--------|
|------------------------------------------------------------------------11\----|
|-------------------------------------------------------------------------------|


                       PM  PM        PM------------------|
|------4--------------------------------------------------------|
|--------7p4---4------------------------------------------------|
|-6b8--------6---7p6p4---6---4---4------------------------------|
|----------------------6---6---6---6-4---4----------------------|
|--------------------------------------6---6-4-2-4-2-1---1-2----|
|------------------------------------------------------4--------|


  PM--------|
|--------------------------------------------------------11-12-14-12-11----------------11h16p11------------------------|
|-----------------------------------------------11-12-14----------------14-12-11----12----------12-----11tr12----------|
|--------------------------10h11p10----10-11-13----------------------------------13----------------13------------13----|
|-------------6-8-9-8-9-11----------13---------------------------------------------------------------------------------|
|-------6-7-9----------------------------------------------------------------------------------------------------------|
|-6-7-9----------------------------------------------------------------------------------------------------------------|


|------------------------18-------18--------------------------------------------------------------------------------|
|-------16-16-21b23---21----21-------21p18----18-------------------------------------18-------18-------18-------18--|
|-18b20------------------------21----------20----20p18----[20]----18-20b22-----20b22----20b22----20b22----20b22-----|
|------------------------------------------------------20------20---------------------------------------------------|
|-------------------------------------------------------------------------------------------------------------------|
|-------------------------------------------------------------------------------------------------------------------|


                                                                         PM    PM    PM|
|------------------------------------------------------------------------------------------------------------------------|
|-------18-21-------18-21-------18-21-------18-21-------21---------------------------------------------------------------|
|-20b22-------20b22-------20b22-------20b22-------20b22----20pb22r20p18----20----18-------18----------18-----------------|
|-----------------------------------------------------------------------20----20----20-18----20p18-------20p18----20\----|
|--------------------------------------------------------------------------------------------------20----------20--------|
|------------------------------------------------------------------------------------------------------------------------|


  PM---------|                                   PM------|
|---------------9h10p9----9--------------------------------------------12b14----|
|------------10--------12---12-10--12--10--9----------------9-10----9-----------|
|---------11---------------------------------11----------11------11-------------|
|------11---------------------------------------------11------------------------|
|-9-12-------------------------------------------9-12---------------------------|
|-------------------------------------------------------------------------------|


|-12-10--9--12--10--9h10p9----9------------------------------|
|--------------------------12---12-10-9----------------------|
|---------------------------------------11b13r====11p9-11----|
|------------------------------------------------------------|
|------------------------------------------------------------|
|------------------------------------------------------------|


Gtr 1
|-------------------------------------------------/14\----|
|-15-----14-----------12-----11-----10------9-------------|
|-17b19--16b18--------14b16--13b15--12b14--11b13----------|
|---------------------------------------------------------|
|---------------------------------------------------------|
|---------------------------------------------------------|

Gtr 2
|-------------------------------------------------/17\----|
|-18-----17-----------15-----14-----13-----12-------------|
|-20b22--19b21--------17b19--16b18--15b17--14b16----------|
|---------------------------------------------------------|
|---------------------------------------------------------|
|---------------------------------------------------------|


Both Gtrs
                           PM|   PM|   PM|   PM|   PM|
|-----------------------------------------------------------|
|-----------------------------------------------------------|
|-----------------------------------------------------------|
|-----------------------------------------------------------|
|-2--8--7--5-2--2-5--7--8------5-----5-----5-----5-----5----|
|-0--6--5--3-0--0-3--5--6--3-4---3-4---3-4---3-4---3-4------|


                                            PM|
|--------------------------------------------------|
|--------------------------------------------------|
|--------------------------------------------------|
|--------------------------------------------------|
|-2--8--7--5-2--2-5--7--8--7---5-----7---5---------|
|-0--6--5--3-0--0-3--5--6--5---3-----5---3--0-0----|


Gtr 3
|--------12-------16p12----12-------------------------------------------------------------|
|-15b17-----15p12-------15----15p12----12-------------------------------------------------|
|-----------------------------------14----14-13----13-------------------------------------|
|-----------------------------------------------14----14-12-11-14-12-11----11-------------|
|-----------------------------------------------------------------------14----14-12-11----|
|-----------------------------------------------------------------------------------------|


   PM------------|
|----------------------------------------------------------------19-20-22-22b24r======22-22---|
|----------------------------------------------17-19-20-19-20-22------------------------------|
|----------------------------14-16-17-16-17-19------------------------------------------------|
|-------------------14-16-17------------------------------------------------------------------|
|----------14-15-17---------------------------------------------------------------------------|
|-14-15-17------------------------------------------------------------------------------------|


Both Gtrs
  PM----------|      PM----|
|-------------------------------|
|-------------------------------|
|-------------------------------|
|-------------------------------|
|----------------7S8------------|
|-6-5-3-6-5-3-5--5S6-0-0-0-0-\--|


Verse
Both Gtrs
  PM------------------|        PM------------|
|-----------------------------------------------------------------|
|-----------------------------------------------------------------|
|-----------------------------------------------------------------|
|-----------------------------------------------------------------|
|-----------------------8---8-------------------------------------|
|-3-3-4-3-3-4-3-3-4-3-3-6---6--3-3-4-3-3-4-3-3-4-6-4-3-4-6-4-3----|


  PM------------------|        PM----------------|
|--------------------------------------------------------------|
|--------------------------------------------------------------|
|--------------------------------------------------------------|
|--------------------------------------------------------------| /3\ triplets
|-----------------------8---8--------------/-3-\----5--6--8----|
|-3-3-4-3-3-4-3-3-4-3-3-6---6--3-3-4-3-3-4-3-3-3-3--3--4--6----|


Both Gtrs
play twice
|------------------------------------------------------|
|------------------------------------------------------|
|-7S8-8-8-------------------7S8-8-8--------------------|
|-5S6-6-6---8-8-------------5S6-6-6---8-8--5-5---------|
|-----------6-6---8-8--5-5------------6-6--3-3--[6]----|
|-----------------6-6--3-3-----------------------------|


Both Gtrs
  PM------------------|        PM------------|
|----------------------------------------------------------------------|
|----------------------------------------------------------------------|
|----------------------------------------------------------/-3-\-------|
|----------------------------------------------------/-3-\-3-5-6-5-6---| /3\ triplets
|-----------------------8---8------------------/-3-\-3-4-6-------------|
|-3-3-4-3-3-4-3-3-4-3-3-6---6--3-3-4-3-3-4-3-3-3-4-6-------------------|

  PM------------------|        PM----------------|
|--------------------------------------------------------------|
|--------------------------------------------------------------|
|--------------------------------------------------------------|
|--------------------------------------------------------------| /3\ triplets
|-----------------------8---8--------------/-3-\----5--6--8----|
|-3-3-4-3-3-4-3-3-4-3-3-6---6--3-3-4-3-3-4-3-3-3-3--3--4--6----|


Both Gtrs
play twice
|------------------------------------------------------|
|------------------------------------------------------|
|-7S8-8-8-------------------7S8-8-8--------------------|
|-5S6-6-6---8-8-------------5S6-6-6---8-8--5-5---------|
|-----------6-6---8-8--5-5------------6-6--3-3--[6]----|
|-----------------6-6--3-3-----------------------------|


Both Gtrs
|-------------------------------------------------------------------|
|-------------------------------------------------------------------|
|-------------------------------------------------------------------|
|-------14------13------12-----11-----10-----9-----8-----7-----6----|
|----12------11------10------9------8------7-----6-----5-----4------|
|-10-------9-------8-------7------6------5-----4-----3-----2--------|


|-------------------------------------------------------------------|
|-------------------------------------------------------------------|
|-------------------------------------------------------------------|
|-----6-----7-----8-----9-----10-----11------12------13-------14----|
|---4-----5-----6-----7-----8------9------10------11-------12-------|
|-2-----3-----4-----5-----6------7------8-------9-------10----------|


|-------------------------------------------------------------------|
|-------------------------------------------------------------------|
|-------------------------------------------------------------------|
|-------14------13------12-----11-----10-----9-----8-----7-----6----|
|----12------11------10------9------8------7-----6-----5-----4------|
|-10-------9-------8-------7------6------5-----4-----3-----2--------|


Gtr 1
|-------------------------------------------------------------------|
|-------------------------------------------------------------------|
|-------------------------------------------------------------------|
|-----6-----7-----8-----9-----10-----11------12------13-------14----|
|---4-----5-----6-----7-----8------9------10------11-------12-12----|
|-2-----3-----4-----5-----6------7------8-------9-------10----10----|


Gtr 2
|----------------------------------------------------------------------------|
|----------------------------------------------------------------------------|
|----------------------------------------------------------------------------|
|-----9-----10-----11------12------13-------14-------15-------16-------17----|
|---7-----8------9------10------11-------12-------13-------14-------15-15----|
|-5-----6------7------8-------9-------10-------11-------12-------13----13----|


Both Gtrs
play twice
     PM------|    PM--------|
|-------------------------------------------------------------------|
|-------------------------------------------------------------------|
|-------------------------------------------------------------------|
|-9------------9----------------------------------------------------|
|-7------------7--------------10-9-7-10-9-7-10-9-7-10-9-7-10-9-7----|
|----0-0-0-0-0----0-0-0-0-0-0---------------------------------------|


     PM------|    PM--------|
|-----------------------------------------------------------------------------|
|-----------------------------------------------------------------------------|
|-----------------------------------------------------------------------------|
|-9------------9--------------------------------------------------------------|
|-7------------7--------------14-12-10-14-12-10-14-12-10-14-12-10-14-12-10----|
|----0-0-0-0-0----0-0-0-0-0-0-------------------------------------------------|


Gtr 3
|-------14-12-14-15-12-14-15-12-14-15-12-14----12-14-------------------------------------------|
|-12-15-------------------------------------15-------15p12----12-------------------------------|
|----------------------------------------------------------15----15p14p12----14----12-[12]\----|
|-------------------------------------------------------------------------14----14-------------|
|----------------------------------------------------------------------------------------------|
|----------------------------------------------------------------------------------------------|


|----------------------------------------------7h12p7----------------|
|--------------------------------------------8--------8--7tr8--------|
|-12S11----11S9----9S7---7S5---5S4---4S2S==9--------------------9----|
|-------12------10-----9-----7-----5---------------------------------|
|--------------------------------------------------------------------|
|--------------------------------------------------------------------|


|-5h7p5h7p5---7---------------------------------|
|-----------8---8p7p5h7h8p7p5-------------------|
|-----------------------------7-7b9----[7]b9----|
|-----------------------------------------------|
|-----------------------------------------------|
|-----------------------------------------------|


                                                                            PM    PM
|-------12--------------------------15p12h14p12----12--------------------------------------------------|
|----------12-15b17----15pb17r15p12-------------15----15p12----12--------------------------------------|
|-14b16-----------------------------------------------------15----15p14p12----14----12-12----12--------|
|--------------------------------------------------------------------------14----14-------14----14\----|
|------------------------------------------------------------------------------------------------------|
|------------------------------------------------------------------------------------------------------|


Gtr 1
play 4 times
  PM--|
|----------------------------------------|
|----------------5h6p5-------------------|
|-------------0--------7p5p4-------------|
|-----7-----8----------------7p5p3-------|
|---5-----6------------------------7-----|
|-3-----4--------------------------------|


Gtr 2
play 4 times
  PM--|
|----------------------------------------|
|----------------8h9p8-------------------|
|-------------0-------10p8p7-------------|
|-----7-----8---------------10p8p6-------|
|---5-----6-----------------------10-----|
|-3-----4--------------------------------|


Both Gtrs
|---------------------------------------------------|
|---------------------------------------------------|
|------------0----------------0----------------0----|
|----------8-------7-7------8-------7-7------8------|
|-5-5----6---------5-5----6---------5-5----6--------|
|-3-3--4-----------3-3--4-----------3-3--4----------|


Both Gtrs
plays to fade
  PM----------------------------------------------|
|-------------------------------------------------------------------|
|-------------------------------------------------------------------|
|-------------------------------------------------------------------|
|-------------------------------------------------------------------|
|---------------------------------------------------8S7--7S6-6S5----|
|-5-3-0-3-0-0-0-0-0-0-0-0-0-0-0-0-5-3-0-3-0-0-0-0-0-6S5--5S4-4S3----|


  PM---------------------------------------------|
|--------------------------------------------------------------|
|--------------------------------------------------------------|
|--------------------------------------------------------------|
|--------------------------------------------------------------|
|-------------------------------------------------1---2p1------|
|-5-3-0-3-0-0-0-0-0-0-0-0-0-0-0-0-5-3-0-3-0-0-2-3---3-----3----|


Gtr 3 (whammy bar stuff)


Tablature Legend
----------------
h   - hammer-on
p   - pull-off
b   - bend
pb  - pre-bend
r   - bend release (if no number after the r, then release immediately)
/\  - slide into or out of (from/to "nowhere")
s   - legato slide
S   - shift slide
  - natural harmonic
[n]  - artificial harmonic
n(n) - tapped harmonic
~   - vibrato
tr  - trill
T   - tap
TP  - trem. picking
PM  - palm muting
\n/  - tremolo bar dip; n = amount to dip
\n  - tremolo bar down
n/  - tremolo bar up
/n\  - tremolo bar inverted dip
=   - hold bend; also acts as connecting device for hammers/pulls
<>  - volume swell (louder/softer)
x   - on rhythm slash represents muted slash
o   - on rhythm slash represents single note slash

Misc Legend
-----------
|  - bar
||  - double bar
||o - repeat start
o|| - repeat end
*|  - double bar (ending)
:  - bar (freetime)
$  - Segno
&  - Coda
Tempo markers -  = BPM(8/16=s8/s16), where s8 = swing 8ths, s16 = swing 16ths

Добавлено: 26.07.2012
Другие материалы по этой песне:

Страница создана 04.04.2012
http://primanota.ru/annihilator/word-salad-chords.htm
Привет, Гость.
Предлагаем пройти революционный курс по гитаре.
Подарок от PrimaNota.Ru, забирай!