PrimaNota.ru - самый крупный в мире бесплатный архив песенных текстов, аккордов, табулатур и нот


Annihilator - Sonic Homicide - текст песни, таба, видео

Регистрация Запомнить меня
Войти через:  Facebook Google Twitter Vk Yandex Mail.ru

Annihilator - Sonic Homicide - текст песни, таба, видео

Печатать
Просмотров: 125
Annihilator - Sonic Homicide

tabbed by ol753
www.annihilatormetal.com
ol753_357lo@yahoo.co.uk

Tuning - E A D G B E


Gtr 1
|------------|
|------------|
|------------|
|------------|
|-------2----|
|-12\---0----|


Gtr 1
play 4 times, Gtr 2 accentuates parts
  PM----------------|       PM----------------|
|-------------------------------------------------------|
|-------------------------------------------------------|
|-------------------------------------------------------|
|-------------------------------------------------------|
|---------------------5--5----------------------8--8----|
|-0-0-0-0-0-0-0-0-0-0-3--3--0-0-0-0-0-0-0-0-0-0-6--6----|


  PM----------------|       PM----------|
|------------------------------------------------------|
|------------------------------------------------------|
|------------------------------------------------------|
|------------------------------------------------------|
|---------------------5--5------------------5-6-7-8----|
|-0-0-0-0-0-0-0-0-0-0-3--3--0-0-0-0-0-0-0-0-3-4-5-6----|


Both Gtrs
play twice
  PM----------------|       PM----------------|
|-------------------------------------------------------|
|-------------------------------------------------------|
|-------------------------------------------------------|
|-------------------------------------------------------|
|---------------------5--5----------------------8--8----|
|-0-0-0-0-0-0-0-0-0-0-3--3--0-0-0-0-0-0-0-0-0-0-6--6----|


  PM----------------|       PM----------|
|------------------------------------------------------|
|------------------------------------------------------|
|------------------------------------------------------|
|------------------------------------------------------|
|---------------------5--5------------------5-6-7-8----|
|-0-0-0-0-0-0-0-0-0-0-3--3--0-0-0-0-0-0-0-0-3-4-5-6----|


Both Gtrs
|----------------------------|
|----------------------------|
|----------------------------|
|----------------------------|
|-5-6-7-8-5-6-7-8-5-6-7-8----|
|-3-4-5-6-3-4-5-6-3-4-5-6----|


Verse
Both Gtrs
play 4 times
  PM----------------|       PM----------------|
|-------------------------------------------------------|
|-------------------------------------------------------|
|-------------------------------------------------------|
|-------------------------------------------------------|
|---------------------5--5----------------------8--8----|
|-0-0-0-0-0-0-0-0-0-0-3--3--0-0-0-0-0-0-0-0-0-0-6--6----|


  PM----------------|       PM----------|
|------------------------------------------------------|
|------------------------------------------------------|
|------------------------------------------------------|
|------------------------------------------------------|
|---------------------5--5------------------5-6-7-8----|
|-0-0-0-0-0-0-0-0-0-0-3--3--0-0-0-0-0-0-0-0-3-4-5-6----|


Chorus
Both Gtrs
|---------------------------------|
|------3-----------------3---3----|
|-2----2----8--------2---0---2----|
|-2----0----8--------2---2---0----|
|-0----0----6--------0---3---0----|
|---------------------------------|


|-----------------------------|
|------3-----------------3----|
|-2----2----8--------2---0----|
|-2----0----8--------2---2----|
|-0----0----6--------0---3----|
|-----------------------------|


  PM------------------|
|--------------------------|
|--------------------------|
|--------------------------|
|-------/-3-\--------------| /3\ triplets
|-/-3-\-0-2-3-5-3-2--------|
|-0-2-3-------------5-2----|


Both Gtrs
play twice
  PM----------------|       PM----------------|
|-------------------------------------------------------|
|-------------------------------------------------------|
|-------------------------------------------------------|
|-------------------------------------------------------|
|---------------------5--5----------------------8--8----|
|-0-0-0-0-0-0-0-0-0-0-3--3--0-0-0-0-0-0-0-0-0-0-6--6----|


  PM----------------|       PM----------|
|------------------------------------------------------|
|------------------------------------------------------|
|------------------------------------------------------|
|------------------------------------------------------|
|---------------------5--5------------------5-6-7-8----|
|-0-0-0-0-0-0-0-0-0-0-3--3--0-0-0-0-0-0-0-0-3-4-5-6----|


Verse 2
Both Gtrs
play twice
  PM----------------|       PM----------------|
|-------------------------------------------------------|
|-------------------------------------------------------|
|-------------------------------------------------------|
|-------------------------------------------------------|
|---------------------5--5----------------------8--8----|
|-0-0-0-0-0-0-0-0-0-0-3--3--0-0-0-0-0-0-0-0-0-0-6--6----|


  PM----------------|       PM----------|
|------------------------------------------------------|
|------------------------------------------------------|
|------------------------------------------------------|
|------------------------------------------------------|
|---------------------5--5------------------5-6-7-8----|
|-0-0-0-0-0-0-0-0-0-0-3--3--0-0-0-0-0-0-0-0-3-4-5-6----|


Chorus
Both Gtrs
|---------------------------------|
|------3-----------------3---3----|
|-2----2----8--------2---0---2----|
|-2----0----8--------2---2---0----|
|-0----0----6--------0---3---0----|
|---------------------------------|


|-----------------------------|
|------3-----------------3----|
|-2----2----8--------2---0----|
|-2----0----8--------2---2----|
|-0----0----6--------0---3----|
|-----------------------------|


  PM------------------|
|--------------------------|
|--------------------------|
|--------------------------|
|-------/-3-\--------------| /3\ triplets
|-/-3-\-0-2-3-5-3-2--------|
|-0-2-3-------------5-2----|


Both Gtrs
play twice
  PM----------------|       PM----------------|
|-------------------------------------------------------|
|-------------------------------------------------------|
|-------------------------------------------------------|
|-------------------------------------------------------|
|---------------------5--5----------------------8--8----|
|-0-0-0-0-0-0-0-0-0-0-3--3--0-0-0-0-0-0-0-0-0-0-6--6----|


  PM----------------|       PM----------|
|------------------------------------------------------|
|------------------------------------------------------|
|------------------------------------------------------|
|------------------------------------------------------|
|---------------------5--5------------------5-6-7-8----|
|-0-0-0-0-0-0-0-0-0-0-3--3--0-0-0-0-0-0-0-0-3-4-5-6----|


Both Gtrs
|-----------------------------------|
|-----------------------------------|
|-----------------------------------|
|-----------------------------------|
|-5-6-7-8-5-6-7-8-5-6-7-8-----------|
|-3-4-5-6-3-4-5-6-3-4-5-6--------1--|


Both Gtrs
play twice
     PM------------------|     PM---------------------|
|--------------------------------------------------------------|
|--------------------------------------------------------------|
|--------------------------------------------------------------|
|--------------------------------------------------------------|
|--------------------------------------------------------------|
|-0--0-0-0--0-0-0--0-0-0-0-3p0-0--0-0-0--0-0-0--0-0-0-0-3p0----|


  PM-----------------|         PM---------------------|
|----------------------------------------------------------|
|----------------------------------------------------------|
|----------------------------------------------------------|
|----------------------------------------------------------|
|--------------------------0h2-----------------------------|
|-1--1-1-1--1-1-1--1-1-1h3-----0--0-0-0--0-0-0--0-0-0-0-\--|


Gtr 3
|-----------------------------------------------------------------|
|-------------9--10--9-----------10h12-12b13--12--10--10h12p10p9--|
|-9--------------------9-9----------------------------------------|
|-----------------------------------------------------------------|
|-----------------------------------------------------------------|
|-----------------------------------------------------------------|


Gtr 3
|---------------------------------------------------|
|-------------9--10--9----------10h12-12--12--10----|
|-9--------------------9-9--------------------------|
|---------------------------------------------------|
|---------------------------------------------------|
|---------------------------------------------------|


Gtr 4
|-----------------------------------------------------------|
|--------------12--14--12------------13h15-15617--15--13----|
|-13----------------------13-13-----------------------------|
|-----------------------------------------------------------|
|-----------------------------------------------------------|
|-----------------------------------------------------------|


Gtr 3 Lead (to be added)


Both Gtrs
     PM|    PM|    PM|            PM|    PM|    PM|
|--------------------------------------------------------------|
|--------------------------------------------------------------|
|--------------------------------------------------------------|
|--------------------------------------------------------------|
|-2------2------2------2-2-----2------2------2------2-2--------|
|-0--0-0-0--0-0-0--0-0-0-0-3p0-0--0-0-0--0-0-0--0-0-0-0-3p0----|


     PM|    PM|    PM|            PM|    PM|
|----------------------------------------------------------|
|----------------------------------------------------------|
|----------------------------------------------------------|
|----------------------------------------------------------|
|-3------3------3----------0h2-2------2------2-------------|
|-1--1-1-1--1-1-1--1-1-1h3-----0--0-0-0--0-0-0--0-0-0-0-\--|


Both Gtrs
play twice
|--------------------------------------------------------------|
|--------------------------------------------------------------|
|--------------------------------------------------------------|
|--------------------------------------------------------------|
|-2--2-2-2--2-2-2--2-2-2-2-----2--2-2-2--2-2-2--2-2-2-2--------|
|-0--0-0-0--0-0-0--0-0-0-0-3p0-0--0-0-0--0-0-0--0-0-0-0-3p0----|


|----------------------------------------------------------|
|----------------------------------------------------------|
|----------------------------------------------------------|
|----------------------------------------------------------|
|-3--3-3-3--3-3-3--3-3-----0h2-2--2-2-2--2-2-2--2-2-2-2----|
|-1--1-1-1--1-1-1--1-1-1h3-----0--0-0-0--0-0-0--0-0-0-0-\--|


Gtr 3
play lots of times
|--------------------|
|--------------------|
|-9-9-9-9-9-9-9-9----|
|--------------------|
|--------------------|
|--------------------|


Gtr 1
|--------------------------------------------------------------|
|--------------------------------------------------------------|
|--------------------------------------------------------------|
|-9--9-9-9--9-9-9--9-9-9-7-9-7-9--9-9-9--9-9-9--9-9-9-7-9-7----|
|-7--7-7-7--7-7-7--7-7-7-5-7-5-7--7-7-7--7-7-7--7-7-7-5-7-5----|
|-0--0-0-0--0-0-0--0-0-0-------0--0-0-0--0-0-0--0-0-0----------|


|--------------------------------------------------|
|--------------------------------------------------|
|--------------------------------------------------|
|-10--10-10-10--10-10-12----14----9--9-9-9--9-9----|
|--8---8--8--8---8--8-10----12----7--7-7-7--7-7----|
|-----------------------------------------------\--|


Gtr 2
|---------------------------------------------------------------------------|
|---------------------------------------------------------------------------|
|---------------------------------------------------------------------------|
|-9--9-9-9--9-9-9--9-9-9-7-9-7-12--12-12-12--12-12-12--12-12-12-10-12-10----|
|-7--7-7-7--7-7-7--7-7-7-5-7-5-10--10-10-10--10-10-10--10-10-10--8-10--8----|
|-0--0-0-0--0-0-0--0-0-0----------------------------------------------------|


|--------------------------------------------------|
|--------------------------------------------------|
|--------------------------------------------------|
|-10--10-10-10--10-10-12----14----9--9-9-9--9-9----|
|--8---8--8--8---8--8-10----12----7--7-7-7--7-7----|
|-----------------------------------------------\--|


Gtr 1, Gtr 2 accentuates parts
  PM----------------|       PM----------------|       PM----------------|
|----------------------------------------------------------------------------------|
|----------------------------------------------------------------------------------|
|---------------------5--4----------------------8--7----------------------5--4-----|
|---------------------5--4----------------------8--7----------------------5--4--2--|
|-0-0-0-0-0-0-0-0-0-0-------0-0-0-0-0-0-0-0-0-0-------0-0-0-0-0-0-0-0-0-0-------0--|
|----------------------------------------------------------------------------------|


Both Gtrs
|---------------|
|---------------|
|-[7]--[5]------|
|---[7]--[5]----|
|---------------|
|---------------|


Both Gtrs
|--------------------------------------------------------------------|
|--------------------------------------------------------------------|
|--------------------------------------------------------------------|
|-7-7-7-7-5-5-5-5-3-3-3-3-2-2-2-2-7-7-7-7-5-5-5-5-3-3-3-3-2-2-2-2----|
|-0-0-0-0-0-0-0-0-0-0-0-0-0-0-0-0-0-0-0-0-0-0-0-0-0-0-0-0-0-0-0-0----|
|--------------------------------------------------------------------|


Both Gtrs
play twice
  PM----------------------------|
|------------------------------------|
|------------------------------------|
|------------------------------------|
|------------------------------------|
|-0-0-0-0-0-0-0-0-0-0-0-0-0-0-0-0----|
|------------------------------------|


Both Gtrs
play twice, Gtr 3 Lead (to be added)
  PM----------------|         PM----------------|
|----------------------------------------------------------|
|----------------------------------------------------------|
|----------------------------------------------------------|
|-------------------------10-------------------------------|
|-0-0-0-0-0-0-0-0-0-0-6-7-----0-0-0-0-0-0-0-0-0-0-7-6-5----|
|----------------------------------------------------------|


  PM----------------|        PM|
|-------------------------------------------------|
|-------------------------------------------------|
|-------------------------------------------------|
|-------------------------5-----------------------|
|-0-0-0-0-0-0-0-0-0-0-6-7----0-0-6-5-3-0-3-5-6----|
|-------------------------------------------------|


Both Gtrs
  PM----------------|         PM----------------|
|----------------------------------------------------------|
|----------------------------------------------------------|
|----------------------------------------------------------|
|----------------------------------------------------------|
|-------------------------10-------------------------------|
|-0-0-0-0-0-0-0-0-0-0-6-7-----0-0-0-0-0-0-0-0-0-0-7-6-5----|


  PM----------------|        PM|
|-------------------------------------------------|
|-------------------------------------------------|
|-------------------------------------------------|
|-------------------------------------------------|
|-------------------------5-----------------------|
|-0-0-0-0-0-0-0-0-0-0-6-7----0-0-6-5-3-0-3-5-6----|


  PM----------------|
|--------------------------------------------|
|--------------------------------------------|
|--------------------------------------------|
|---------------------5--4--------------2-4--|
|---------------------3--2--------2-4-5------|
|-2-2-2-2-2-2-2-2-2-2-------2-4-5------------|


Both Gtrs
  PM----------------|       PM----------------|
|-------------------------------------------------------|
|-------------------------------------------------------|
|-------------------------------------------------------|
|-------------------------------------------------------|
|---------------------5--5----------------------8--8\---|
|-0-0-0-0-0-0-0-0-0-0-3--3--0-0-0-0-0-0-0-0-0-0-6--6\---|


Repeat Verse 2
Play Chorus twice


Both Gtrs
  PM----------------|       PM----------------|
|-------------------------------------------------------|
|-------------------------------------------------------|
|-------------------------------------------------------|
|-------------------------------------------------------|
|---------------------5--5----------------------8--8----|
|-0-0-0-0-0-0-0-0-0-0-3--3--0-0-0-0-0-0-0-0-0-0-6--6----|


  PM----------------|       PM----------|
|------------------------------------------------------|
|------------------------------------------------------|
|------------------------------------------------------|
|------------------------------------------------------|
|---------------------5--5------------------5-6-7-8----|
|-0-0-0-0-0-0-0-0-0-0-3--3--0-0-0-0-0-0-0-0-3-4-5-6----|


Both Gtrs
play 4 times, Gtr 3 Lead (to be added)
  PM----------------|       PM----------------|
|-------------------------------------------------------|
|-------------------------------------------------------|
|-------------------------------------------------------|
|-------------------------------------------------------|
|---------------------5--5----------------------8--8----|
|-0-0-0-0-0-0-0-0-0-0-3--3--0-0-0-0-0-0-0-0-0-0-6--6----|


  PM----------------|       PM----------|
|------------------------------------------------------|
|------------------------------------------------------|
|------------------------------------------------------|
|------------------------------------------------------|
|---------------------5--5------------------5-6-7-8----|
|-0-0-0-0-0-0-0-0-0-0-3--3--0-0-0-0-0-0-0-0-3-4-5-6----|


Both Gtrs
|--------|
|-8-8\---|
|-9-9\---|
|-9-9\---|
|-7-7\---|
|-0-0----|


Tablature Legend
----------------
 h   - hammer-on
 p   - pull-off
 b   - bend
 pb  - pre-bend
 r   - bend release (if no number after the r, then release immediately)
 /\  - slide into or out of (from/to "nowhere")
 s   - legato slide
 S   - shift slide
  - natural harmonic
[n]  - artificial harmonic
n(n) - tapped harmonic
 ~   - vibrato
 tr  - trill
 T   - tap
 TP  - trem. picking
 PM  - palm muting
\n/  - tremolo bar dip; n = amount to dip
 \n  - tremolo bar down
 n/  - tremolo bar up
/n\  - tremolo bar inverted dip
 =   - hold bend; also acts as connecting device for hammers/pulls
 <>  - volume swell (louder/softer)
 x   - on rhythm slash represents muted slash
 o   - on rhythm slash represents single note slash

Misc Legend
-----------
 |  - bar
||  - double bar
||o - repeat start
o|| - repeat end
*|  - double bar (ending)
 :  - bar (freetime)
 $  - Segno
 &  - Coda
Tempo markers -  = BPM(8/16=s8/s16), where s8 = swing 8ths, s16 = swing 16ths
Добавлено: 24.03.2012
Другие материалы по этой песне:
  • Аккорды и текст

Страница создана 24.03.2012
http://primanota.ru/annihilator/sonic-homicide-chords.htm
Привет, Гость.
Предлагаем пройти революционный курс по гитаре.
Подарок от PrimaNota.Ru, забирай!