PrimaNota.ru - самый крупный в мире бесплатный архив песенных текстов, аккордов, табулатур и нот


Annihilator - Speed - текст песни, таба, видео

Регистрация Запомнить меня
Войти через:  Facebook Google Twitter Vk Yandex Mail.ru

Annihilator - Speed - текст песни, таба, видео

Печатать
Просмотров: 240
Annihilator - Speed

tabbed by ol753
www.annihilatormetal.com
ol753_357lo@yahoo.co.uk

Tuning - E A D G B E


Gtr 1
|-19\---|
|-------|
|-------|
|-------|
|-------|
|-------|


Both Gtrs
play twice
     PM---|         PM                        PM
|----------------------------------------------------------------------|
|-4---------4-----4---4--6pb7r6p4---6--6-4--4----4---4-----7---------9-|
|-4---------4-----4---4--6pb7-6p4---6--6-4--4----4---4-/8----8-7-6-7---|
|----6-4--6---6-----6-------------6-----------6----6-------------------|
|----------------------------------------------------------------------|
|----------------------------------------------------------------------|


       PM-|                                  PM-|     PM|
|------------------------------------------------------------|
|-4--4------4----4---4--6pb7r6p4---6--6-4--4-----------------|
|-4--4------4----4---4--6pb7-6p4---6--6-4--4-----------------|
|------6--6---6----6-------------6-----------6--6-6p4--------|
|-----------------------------------------------------6-2----|
|------------------------------------------------------------|


Pre-Verse
Both Gtrs
play twice
     PM--|        PM                       PM-|
|-----------------------------------------------------------------|
|-----------------------------------------------------------------|
|-------------------------------------------------------4-4--6--6-|
|-------------------------------------------------------2-2--4--4-|
|-2--------2----2---2-4pb5r4-2---4--4-2--2------2----2------------|
|----4-2-4---4----4------------4-----------4--4----4--------------|


     PM--|        PM                       PM-|   PM------------|
|------------------------------------------------------------------|
|------------------------------------------------------------------|
|------------------------------------------------------------------|
|------------------------------------------------------------------|
|-2--------2----2---2-4pb5r4p2---4--4-2--2------2------------------|
|----4-2-4---4----4------------4-----------4--2---4-2--4--1-2-3-4--|


Both Gtrs
|----------------------|
|----------------------|
|----------------------|
|----------------------|
|-6---------------6\---|
|-4---------------4\---|


Both Gtrs, Gtr 3 play same an octave higher
|-------------------------------------------|
|-------------------------------------------|
|-------------------------------------------|
|-6--6-4--4---------------------------------|
|-----------6--6-5--5-4--2-4--4b5r4--2------|
|--------------------------------------4----|


Verse
Gtr 1
play 3 times
  PM----------------------------|
|------------------------------------|
|------------------------------------|
|------------------------------------|
|------------------------------------|
|------------------------------------|
|-4--4-2--4--4--2-4--4-2--4--4--2----|


4th time
  PM-------------------------------|
|------------------------------------|
|------------------------------------|
|------------------------------------|
|------------------------------------|
|------------------------------------|
|-4--4-2--4--4--2-4--4-2--4--4--2--4-|


Gtr 2 
                          PM
|----------------------------|
|----------------------------|
|-4----------4------3--------|
|-4----------2------4--------|
|----------------------------|
|-------------------------2--|


  PM----------------------------|
|------------------------------------|
|------------------------------------|
|------------------------------------|
|------------------------------------|
|------------------------------------|
|-4--4-2--4--4--2-4--4-2--4--4--2----|


  PM-------------------------------|
|------------------------------------|
|------------------------------------|
|------------------------------------|
|------------------------------------|
|------------------------------------|
|-4--4-2--4--4--2-4--4-2--4--4--2--4-|


Both Gtrs
                          PM
|----------------------------|
|----------------------------|
|-4----------4------6--------|
|-4----------2------4--------|
|----------------------------|
|-------------------------2--|


  PM----------------------------|
|------------------------------------|
|------------------------------------|
|------------------------------------|
|------------------------------------|
|------------------------------------|
|-4--4-2--4--4--2-4--4-2--4--4--2----|


  PM----------------------------|
|------------------------------------|
|------------------------------------|
|------------------------------------|
|------------------------------------|
|------------------------------------|
|-4--4-2--4--4--2-4--4-2--4-2--4-\---|


Chorus
Both Gtrs
  PM-|       PM-|       PM---|       PM---|
|-------------------------------------------------------|
|-------------------------------------------------------|
|------4--4-------3--3---------4--4---------4--4---4----|
|------2--2-------4--4---------4--4---------4--4---4----|
|------------------------------------------------6------|
|-0--0-------2--2-------4--4-4-------4--4-4-------------|


  PM-|      PM-|       PM---|
|--------------------------------------------------|
|--------------------------------------------------|
|------4--4------3--3---------4--------------------|
|------2--2------4--4---------4--------------------|
|---------------------------------2--1----1--------|
|-0--0------2--2-------4--4-4---\------4----4-2----|


  PM-|       PM-|       PM---|       PM---|
|-------------------------------------------------------|
|-------------------------------------------------------|
|------4--4-------3--3---------4--4---------4--4---4----|
|------2--2-------4--4---------4--4---------4--4---4----|
|------------------------------------------------6------|
|-0--0-------2--2-------4--4-4-------4--4-4-------------|


  PM-|       PM-|            PM----|
|------------------------------------------|
|------------------------------------------|
|------4--4-------3------------------------|
|------2--2-------4------------------------|
|------------------------2------------2----|
|-0--0-------2--2----\---0---0--0--0--0----|


Repeat Pre-Verse
Repeat Verse
Repeat Chorus


Both Gtrs
play twice
     PM----------|    PM----------|    PM----------|
|-------------------------------------------------------------------|
|-------------------------------------------------------------------|
|-------------------------------------------------------------------|
|-6---------------------------------6----------------2--------------|
|-4----------------2----------------4----------------0------2-------|
|----0-4--0-3--0-2-0--0-2--0-3--0-4----0-4--0-3--0-2----4-2-0--2-4--|


     PM----------|    PM----------|    PM----------|
|-------------------------------------------------------------------|
|-------------------------------------------------------------------|
|-------------------------------------------------------------------|
|-6---------------------------------6----------------2------4-------|
|-4----------------2----------------4----------------0----0-2--0-2--|
|----0-4--0-3--0-2-0--0-2--0-3--0-4----0-4--0-3--0-2----4-----------|


Both Gtrs
|-------------------------------------|
|-------------------------------------|
|-------------------------------------|
|-6---4------6---4---2----------------|
|-4---2------4---2---0------2---------|
|-----------------------4-2-0--2-4----|


|-------------------------------------|
|-------------------------------------|
|-------------------------------------|
|-6---4------6---4---2------4---------|
|-4---2------4---2---0----0-2--0-2----|
|-----------------------4-------------|


Both Gtrs, Gtr 3 Lead (to be added)
     PM----------|    PM----------|    PM----------|
|-------------------------------------------------------------------|
|-------------------------------------------------------------------|
|-------------------------------------------------------------------|
|-6---------------------------------6----------------2--------------|
|-4----------------2----------------4----------------0------2-------|
|----0-4--0-3--0-2-0--0-2--0-3--0-4----0-4--0-3--0-2----4-2-0--2-4--|


     PM----------|    PM----------|    PM----------|
|-------------------------------------------------------------------|
|-------------------------------------------------------------------|
|-------------------------------------------------------------------|
|-6---------------------------------6----------------2------4-------|
|-4----------------2----------------4----------------0----0-2--0-2--|
|----0-4--0-3--0-2-0--0-2--0-3--0-4----0-4--0-3--0-2----4-----------|


Both Gtrs
play twice
                            PM
|-------------------------------------------------------------|
|-------------------------------------------------------------|
|-------------------------------------------------------------|
|-9--9--9-9-9--9--9-9-6--6----6--6--4--4----------------------|
|-7--7--7-7-6--6--6-6-4--4--4-4--4--2--2--7--7--7-7-7--7--7-7-|
|-----------------------------------------5--5--5-5-4--4--4-4-|


       PM--------|      PM     PM
|-----------------------------------|
|-----------------------------------|
|------------------2--2---2--2------|
|------------------2--2---2--2------|
|-4--4------------------------------|
|-2--2-2--2-2--2-2------2------2----|


Gtr 1
|-19\---|
|-------|
|-------|
|-------|
|-------|
|-------|


Both Gtrs
     PM---|         PM                        PM
|----------------------------------------------------------------------|
|-4---------4-----4---4--6pb7r6p4---6--6-4--4----4---4-----7---------9-|
|-4---------4-----4---4--6pb7-6p4---6--6-4--4----4---4-/8----8-7-6-7---|
|----6-4--6---6-----6-------------6-----------6----6-------------------|
|----------------------------------------------------------------------|
|----------------------------------------------------------------------|


       PM-|                                  PM-|     PM|
|------------------------------------------------------------|
|-4--4------4----4---4--6pb7r6p4---6--6-4--4-----------------|
|-4--4------4----4---4--6pb7-6p4---6--6-4--4-----------------|
|------6--6---6----6-------------6-----------6--6-6p4--------|
|-----------------------------------------------------6-2----|
|------------------------------------------------------------|


Repeat Verse


Chorus
Both Gtrs
  PM-|       PM-|       PM---|       PM---|
|-------------------------------------------------------|
|-------------------------------------------------------|
|------4--4-------3--3---------4--4---------4--4---4----|
|------2--2-------4--4---------4--4---------4--4---4----|
|------------------------------------------------6------|
|-0--0-------2--2-------4--4-4-------4--4-4-------------|


  PM-|      PM-|       PM---|
|--------------------------------------------------|
|--------------------------------------------------|
|------4--4------3--3---------4--------------------|
|------2--2------4--4---------4--------------------|
|---------------------------------2--1----1--------|
|-0--0------2--2-------4--4-4---\------4----4-2----|


  PM-|       PM-|       PM---|       PM---|
|-------------------------------------------------------|
|-------------------------------------------------------|
|------4--4-------3--3---------4--4---------4--4---4----|
|------2--2-------4--4---------4--4---------4--4---4----|
|------------------------------------------------6------|
|-0--0-------2--2-------4--4-4-------4--4-4-------------|


  PM-|       PM-|       PM---|       PM---|
|-------------------------------------------------------|
|-------------------------------------------------------|
|------4--4-------3--3---------4--4---------4--4---4----|
|------2--2-------4--4---------4--4---------4--4---4----|
|------------------------------------------------6------|
|-0--0-------2--2-------4--4-4-------4--4-4-------------|


Both Gtrs
play to fade
  PM-|      PM----|       PM-----|      PM-----|
|------------------------------------------------------------|
|------------------------------------------------------------|
|------4--4----------3--3----------4--4----------4--4---4----|
|------2--2----------4--4----------4--4----------4--4---4----|
|-----------------------------------------------------6------|
|-0--0------0-2--2-2------2-4--4-4------4-4--4-4-------------|


Gtr 3
play 8 times
|---------------------|
|---------------------|
|--------11-----13----|
|-14------------------|
|---------------------|
|---------------------|


Gtr 4
play 8 times
|---------------------|
|--------11-----12----|
|-13------------------|
|---------------------|
|---------------------|
|---------------------|


Gtr 5
play 8 times
|---------------------|
|--------14-----16----|
|-16------------------|
|---------------------|
|---------------------|
|---------------------|


Gtr 3 Lead (to be added)


Tablature Legend
----------------
 h   - hammer-on
 p   - pull-off
 b   - bend
 pb  - pre-bend
 r   - bend release (if no number after the r, then release immediately)
 /\  - slide into or out of (from/to "nowhere")
 s   - legato slide
 S   - shift slide
  - natural harmonic
[n]  - artificial harmonic
n(n) - tapped harmonic
 ~   - vibrato
 tr  - trill
 T   - tap
 TP  - trem. picking
 PM  - palm muting
\n/  - tremolo bar dip; n = amount to dip
 \n  - tremolo bar down
 n/  - tremolo bar up
/n\  - tremolo bar inverted dip
 =   - hold bend; also acts as connecting device for hammers/pulls
 <>  - volume swell (louder/softer)
 x   - on rhythm slash represents muted slash
 o   - on rhythm slash represents single note slash

Misc Legend
-----------
 |  - bar
||  - double bar
||o - repeat start
o|| - repeat end
*|  - double bar (ending)
 :  - bar (freetime)
 $  - Segno
 &  - Coda
Tempo markers -  = BPM(8/16=s8/s16), where s8 = swing 8ths, s16 = swing 16ths
Добавлено: 30.07.2012
Другие материалы по этой песне:

Страница создана 25.03.2012
http://primanota.ru/annihilator/speed-chords.htm
Привет, Гость.
Предлагаем пройти революционный курс по гитаре.
Подарок от PrimaNota.Ru, забирай!