PrimaNota.ru - самый крупный в мире бесплатный архив песенных текстов, аккордов, табулатур и нот


Annihilator - Shallow Grave - текст песни, таба, видео

Регистрация Запомнить меня
Войти через:  Facebook Google Twitter Vk Yandex Mail.ru

Annihilator - Shallow Grave - текст песни, таба, видео

Печатать
Просмотров: 271
Уроки эстрадного вокала в Санкт-Петербурге
Annihilator - Shallow Grave

tabbed by 
ol753_357lo@yahoo.co.uk

Tuning - E A D G B E


Gtr 1
  PM   PM        PM   PM        PM   PM        PM   PM        PM
|-----------------------------------------------------------------|
|------------3-----------------------------3----------------------|
|--------0---2----------0---2----------0---2----------0---2-------|
|--------0---0----------0---2----------0---0----------0---2-------|
|---2----2---------2----2---0-----2----2---------2----2---0-------|
|-0-0--0-3-------0-0--0-3-------0-0--0-3-------0-0--0-3-------0---|


      PM        PM   PM        PM   PM        PM   PM        PM
|----------------------------------------------------------------|
|-----------3-----------------------------3----------------------|
|-------0---2----------0---2----------0---2----------0---2-------|
|-------0---0----------0---2----------0---0----------0---2-------|
|--2----2---------2----2---0-----2----2---------2----2---0-------|
|--0--0-3-------0-0--0-3-------0-0--0-3-------0-0--0-3-------0---|


Gtr 1
  PM   PM        PM   PM        PM   PM        PM   PM
|---------------------------------------------------------------------|
|------------3-----------------------------3--------------------------|
|--------0---2----------0---2----------0---2----------0---------------|
|--------0---0----------0---2----------0---0----------0---2-------2---|
|---2----2---------2----2---0-----2----2---------2----2---0-------0---|
|-0-0--0-3-------0-0--0-3-------0-0--0-3-------0-0--0-3-----3b3.5-----|


Gtr 2
play twice
  PM
|--------|
|--------|
|--------|
|---2----|
|---2----|
|-0-0----|


Gtr 3
play 4 times
|--------------------------|
|--------------------------|
|-7h9-9-9-7h9-9-9-7h9-9----|
|--------------------------|
|--------------------------|
|--------------------------|


Both Gtrs
play twice
|-----------------------------------------------------------------------------|
|-------------3-----------------------------------3---------------------------|
|--------0----2------------0----2-----------0-----2-----------0---------------|
|--------0----0------------0----2-----------0-----0-----------0-----2-------2-|
|-2------2----------2------2----0----2------2----------2------2-----0-------0-|
|-0---0--3----------0---0--3---------0----0-3----------0----0-3-------3b3.5---|


Gtr 3
play 7 times
|--------------------------|
|--------------------------|
|-7h9-9-9-7h9-9-9-7h9-9----|
|--------------------------|
|--------------------------|
|--------------------------|


8th time
|---------------------------|
|---------------------------|
|-7h9-9-9-7h9-9-9-7h9-9-9\--|
|---------------------------|
|---------------------------|
|---------------------------|


Both Gtrs
      PM        PM   PM        PM   PM        PM   PM       
|--------------------------------------------------------------------|
|-----------3-----------------------------3--------------------------|
|-------0---2----------0---2----------0---2----------0---------------|
|-------0---0----------0---2----------0---0----------0---2-------2---|
|--2----2---------2----2---0-----2----2---------2----2---0-------0---|
|--0--0-3-------0-0--0-3-------0-0--0-3-------0-0--0-3-----3b3.5-----|


Verse
Both Gtrs
play twice
      PM        PM   PM        PM   PM        PM   PM       
|--------------------------------------------------------------------|
|-----------3-----------------------------3--------------------------|
|-------0---2----------0---2----------0---2----------0---------------|
|-------0---0----------0---2----------0---0----------0---2-------2---|
|--2----2---------2----2---0-----2----2---------2----2---0-------0---|
|--0--0-3-------0-0--0-3-------0-0--0-3-------0-0--0-3-----3b3.5-----|


Chorus
Both Gtrs
play twice
|-----------------------------------------------------------------------------|
|-------------3-----------------------------------3---------------------------|
|--------0----2------------0----2-----------0-----2-----------0---------------|
|--------0----0------------0----2-----------0-----0-----------0-----2-------2-|
|-2------2----------2------2----0----2------2----------2------2-----0-------0-|
|-0---0--3----------0---0--3---------0----0-3----------0----0-3-------3b3.5---|


Gtr 3
play 7 times
|--------------------------|
|--------------------------|
|-7h9-9-9-7h9-9-9-7h9-9----|
|--------------------------|
|--------------------------|
|--------------------------|


8th time
|---------------------------|
|---------------------------|
|-7h9-9-9-7h9-9-9-7h9-9-9\--|
|---------------------------|
|---------------------------|
|---------------------------|


Repeat Verse


Chorus
Both Gtrs
play 4 times
|-----------------------------------------------------------------------------|
|-------------3-----------------------------------3---------------------------|
|--------0----2------------0----2-----------0-----2-----------0---------------|
|--------0----0------------0----2-----------0-----0-----------0-----2-------2-|
|-2------2----------2------2----0----2------2----------2------2-----0-------0-|
|-0---0--3----------0---0--3---------0----0-3----------0----0-3-------3b3.5---|


Gtr 3
play 16 times
|--------------------------|
|--------------------------|
|-7h9-9-9-7h9-9-9-7h9-9----|
|--------------------------|
|--------------------------|
|--------------------------|


Both Gtrs
play twice, Gtr 3 Lead (to be added)
      PM        PM   PM        PM   PM        PM   PM       
|--------------------------------------------------------------------|
|-----------3-----------------------------3--------------------------|
|-------0---2----------0---2----------0---2----------0---------------|
|-------0---0----------0---2----------0---0----------0---2-------2---|
|--2----2---------2----2---0-----2----2---------2----2---0-------0---|
|--0--0-3-------0-0--0-3-------0-0--0-3-------0-0--0-3-----3b3.5-----|


Both Gtrs
|-------------------------------------------------------------------------|
|-------------3----------------------------------3------------------------|
|--------0----2------------0----2----------0-----2-----------0-----2------|
|--------0----0------------0----2----------0-----0-----------0-----2------|
|-2------2----------2------2----0-----2----2----------2------2-----0------|
|-0---0--3----------0---0--3--------3-0----3----------0----0-3---------3--|


|-----------------------------------------------------------------------------|
|-------------3----------------------------------3----------------------------|
|--------0----2------------0----2----------0-----2-----------0----------------|
|--------0----0------------0----2----------0-----0-----------0-----2-------2--|
|-2------2----------2------2----0-----2----2----------2------2-----0-------0--|
|-0---0--3----------0---0--3--------3-0----3----------0----0-3-------3b3.5----|


|-----|
|-----|
|-----|
|-----|
|--2--|
|--0--|


Both Gtrs
play 4 times, Gtr 3 Lead (to be added)
   PM   PM        PM   PM        PM   PM        PM   PM       
|----------------------------------------------------------------------|
|-------------3-----------------------------3--------------------------|
|---------0---2----------0---2----------0---2----------0---------------|
|---------0---0----------0---2----------0---0----------0---2-------2---|
|----2----2---------2----2---0-----2----2---------2----2---0-------0---|
|--0-0--0-3-------0-0--0-3-------0-0--0-3-------0-0--0-3-----3b3.5-----|


Chorus
Both Gtrs
play 4 times
|-----------------------------------------------------------------------------|
|-------------3-----------------------------------3---------------------------|
|--------0----2------------0----2-----------0-----2-----------0---------------|
|--------0----0------------0----2-----------0-----0-----------0-----2-------2-|
|-2------2----------2------2----0----2------2----------2------2-----0-------0-|
|-0---0--3----------0---0--3---------0----0-3----------0----0-3-------3b3.5---|


Gtr 3
play 16 times
|--------------------------|
|--------------------------|
|-7h9-9-9-7h9-9-9-7h9-9----|
|--------------------------|
|--------------------------|
|--------------------------|


Both Gtrs
plyas to fade, Gtr 3 Lead (to be added)
|-----------------------------------------------------------------------------|
|-------------3-----------------------------------3---------------------------|
|--------0----2------------0----2-----------0-----2-----------0---------------|
|--------0----0------------0----2-----------0-----0-----------0-----2-------2-|
|-2------2----------2------2----0----2------2----------2------2-----0-------0-|
|-0---0--3----------0---0--3---------0----0-3----------0----0-3-------3b3.5---|


Tablature Legend
----------------
 h   - hammer-on
 p   - pull-off
 b   - bend
 pb  - pre-bend
 r   - bend release (if no number after the r, then release immediately)
 /\  - slide into or out of (from/to "nowhere")
 s   - legato slide
 S   - shift slide
  - natural harmonic
[n]  - artificial harmonic
n(n) - tapped harmonic
 ~   - vibrato
 tr  - trill
 T   - tap
 TP  - trem. picking
 PM  - palm muting
\n/  - tremolo bar dip; n = amount to dip
 \n  - tremolo bar down
 n/  - tremolo bar up
/n\  - tremolo bar inverted dip
 =   - hold bend; also acts as connecting device for hammers/pulls
 <>  - volume swell (louder/softer)
 x   - on rhythm slash represents muted slash
 o   - on rhythm slash represents single note slash

Misc Legend
-----------
 |  - bar
||  - double bar
||o - repeat start
o|| - repeat end
*|  - double bar (ending)
 :  - bar (freetime)
 $  - Segno
 &  - Coda
Tempo markers -  = BPM(8/16=s8/s16), where s8 = swing 8ths, s16 = swing 16ths

Добавлено: 22.07.2012
Другие материалы по этой песне:
  • Аккорды и текст

Страница создана 03.05.2012
http://primanota.ru/annihilator/shallow-grave-chords.htm
Привет, Гость.
Предлагаем пройти революционный курс по гитаре.
Подарок от PrimaNota.Ru, забирай!