PrimaNota.ru - самый крупный в мире бесплатный архив песенных текстов, аккордов, табулатур и нот


Annihilator - In The Blood - текст песни, таба, видео

Регистрация Запомнить меня
Войти через:  Facebook Google Twitter Vk Yandex Mail.ru

Annihilator - In The Blood - текст песни, таба, видео

Печатать
Просмотров: 199
Авторы: Ralph Murphy, Jeff Waters

Annihilator - In The Blood

tabbed by ol753
www.annihilatormetal.com
ol753_357lo@yahoo.co.uk

Tuning - E A D G B E


Gtr 1
play 3 times, Gtr 2 joins 2nd time
|------------------------------|
|-------2--------------2--3----|
|-----2----2---------2---------|
|---4--------4-----5-----------|
|-2------------2-2-------------|
|------------------------------|


Both Gtrs
4th time
|---------------------------|
|-------2--------------3----|
|-----2----2---------2------|
|---4--------4-----5--------|
|-2------------2-2----------|
|---------------------------|


Verse
Both Gtrs
play 8 times
|------------------------------|
|-------2--------------2--3----|
|-----2----2---------2---------|
|---4--------4-----5-----------|
|-2------------2-2-------------|
|------------------------------|


Chorus
Both Gtrs
|------------------------------------------------------------|
|---------------------0-------------3--------------3---------|
|-------0-----------6----6--------0----0---------0----0------|
|-----0----0------7--------7----4--------4-----4--------4----|
|---2--------2--0-------------2------------2-2---------------|
|-3----------------------------------------------------------|


|------------------------------------------------------------|
|-------0---------------------------3--------------3---------|
|-----6----6----------0-----------0----0---------0----0------|
|---7--------7------0----0------4--------4-----4--------4----|
|-0---------------2--------2--2------------2-2---------------|
|---------------3--------------------------------------------|


|------------------------------------------------------------|
|---------------------0-------------3------------------------|
|-------0-----------6----6--------0----0------------0--------|
|-----0----0------7--------7----4--------4------0-----0------|
|---2--------2--0-------------2---------------2---2-----2----|
|-3----------------------------------------3-----------------|


|---------------0----|
|---------------0----|
|-------0-------6----|
|-----0----0----7----|
|---2--------2--0----|
|-3------------------|


Gtr 1
play 3 times, Gtr 2 joins 2nd time
|------------------------------|
|-------2--------------2--3----|
|-----2----2---------2---------|
|---4--------4-----5-----------|
|-2------------2-2-------------|
|------------------------------|


Both Gtrs
4th time
|---------------------------|
|-------2--------------3----|
|-----2----2---------2------|
|---4--------4-----5--------|
|-2------------2-2----------|
|---------------------------|


Verse
Both Gtrs
play 4 times
|------------------------------|
|-------2--------------2--3----|
|-----2----2---------2---------|
|---4--------4-----5-----------|
|-2------------2-2-------------|
|------------------------------|


Gtr 1
|-------0-------------0-------------0-------------0---------|
|-----3----3--------3----3--------3----3--------3----3------|
|---2--------2----2--------2----2--------2----2--------2----|
|-0-------------5-------------0-------------5---------------|
|-----------------------------------------------------------|
|-----------------------------------------------------------|


Gtr 2
|-------0-------------0-------------0-------------0---------|
|-----6----6--------6----6--------6----6--------6----6------|
|---5--------5----5--------5----5--------5----5--------5----|
|-0-------------8-------------0-------------8---------------|
|-----------------------------------------------------------|
|-----------------------------------------------------------|


Both Gtrs
play twice
|------------------------------|
|-------2--------------2--3----|
|-----2----2---------2---------|
|---4--------4-----5-----------|
|-2------------2-2-------------|
|------------------------------|


Repeat Chorus


Gtr 1
play 3 times
|-----------------------------------------------------------------|
|----------------------------------------------------3-----2------|
|----------------------------0---------------------2---2-----2----|
|-----0-----0--------0-----4--------0-----0------2-------2--------|
|---9-----0--------7-----2--------9-----0------0------------------|
|-7-----3------3-5-----0--------7-----3------3--------------------|


Gtr 1
play twice, Gtr 2 Lead (to be added)
|-----------------------------------------------------------------|
|----------------------------------------------------3-----2------|
|----------------------------0---------------------2---2-----2----|
|-----0-----0--------0-----4--------0-----0------2-------2--------|
|---9-----0--------7-----2--------9-----0------0------------------|
|-7-----3------3-5-----0--------7-----3------3--------------------|


Both Gtrs
|------------------------------------------------------------|
|---------------------0-------------3--------------3---------|
|-------0-----------6----6--------0----0---------0----0------|
|-----0----0------7--------7----4--------4-----4--------4----|
|---2--------2--0-------------2------------2-2---------------|
|-3----------------------------------------------------------|


|------------------------------------------------------------|
|-------0---------------------------3--------------3---------|
|-----6----6----------0-----------0----0---------0----0------|
|---7--------7------0----0------4--------4-----4--------4----|
|-0---------------2--------2--2------------2-2---------------|
|---------------3--------------------------------------------|


Repeat Chorus


Gtr 3 Lead (to be added)


Both Gtrs
play 4 times
|------------------------------|
|-------2--------------2--3----|
|-----2----2---------2---------|
|---4--------4-----5-----------|
|-2------------2-2-------------|
|------------------------------|


Both Gtrs
|-------------0----|
|----------3-------|
|-------0----------|
|----4-------------|
|-2----------------|
|------------------|


Tablature Legend
----------------
 h   - hammer-on
 p   - pull-off
 b   - bend
 pb  - pre-bend
 r   - bend release (if no number after the r, then release immediately)
 /\  - slide into or out of (from/to "nowhere")
 s   - legato slide
 S   - shift slide
  - natural harmonic
[n]  - artificial harmonic
n(n) - tapped harmonic
 ~   - vibrato
 tr  - trill
 T   - tap
 TP  - trem. picking
 PM  - palm muting
\n/  - tremolo bar dip; n = amount to dip
 \n  - tremolo bar down
 n/  - tremolo bar up
/n\  - tremolo bar inverted dip
 =   - hold bend; also acts as connecting device for hammers/pulls
 <>  - volume swell (louder/softer)
 x   - on rhythm slash represents muted slash
 o   - on rhythm slash represents single note slash

Misc Legend
-----------
 |  - bar
||  - double bar
||o - repeat start
o|| - repeat end
*|  - double bar (ending)
 :  - bar (freetime)
 $  - Segno
 &  - Coda
Tempo markers -  = BPM(8/16=s8/s16), where s8 = swing 8ths, s16 = swing 16ths

Добавлено: 13.03.2012
Другие материалы по этой песне:

Страница создана 09.03.2012
http://primanota.ru/annihilator/in-the-blood-chords.htm
Привет, Гость.
Предлагаем пройти революционный курс по гитаре.
Подарок от PrimaNota.Ru, забирай!