PrimaNota.ru - самый крупный в мире бесплатный архив песенных текстов, аккордов, табулатур и нот


Annihilator - Like Father Like Gun - таба, видео

Регистрация Запомнить меня
Войти через:  Facebook Google Twitter Vk Yandex Mail.ru

Annihilator - Like Father Like Gun - таба, видео

Печатать
Просмотров: 146
Авторы музыки: Jeff Waters
Авторы текста: Jeff Waters
tuning is drop d

Intro (guitar 1)
|-------------------------------------------------|
|-------------------------------------------------|
|-------------------------------------------------|
|-------------------------------------------------|
|-------4-3-4-------6-5-6-------4-3-4-------------|
|-0-0-0-------0-0-0-------0-0-0-------2-3-5-2-4-5-|

|-------------------------------------------|
|-------------------------------------------|
|-------------------------------------------|
|-------------------------------------------| palm mute the E string throughout
|-------4-3-4-------6-5-6-------4-3-4-3--5--| on the second part guitar 2 doubles up
|-0-0-0-------0-0-0-------0-0-0-------3--5--| the open E notes

Intro solo (guitar 2) (guitar 1 plays intro)
|-12-14b16r14-12/11h12p11vvv--11-12-14----------11-12-14----------|
|--------------------------------------11-13-14----------11-13-14-|
|-----------------------------------------------------------------|
|-----------------------------------------------------------------|
|-----------------------------------------------------------------|
|-----------------------------------------------------------------|

|-11-12-14----------12h13p12/11-11h12p11/9-|
|----------11-13-14------------------------|
|------------------------------------------|
|------------------------------------------|
|------------------------------------------|
|------------------------------------------|

Verse (both guitars)
|---------------------------------------------------------------------------|
|---------------------------------------------------------------------------|
|---------------------------------------------------------------------------|
|---------------------------------------------------------------------------|
|---------------------------------------------------------------------------|
|-0-0-0-0-2-3-5-0-0-0-0-0-0-0-0-2-4-5-0-0-0-0-0-0-0-0-2-3-5-0-0-0-0-0-0-0-0-|

|-----------------------------------------------------------------------|
|-----------------------------------------------------------------------|
|-----------------------------------------------------------------------|
|-----------------------------------------------------------------------|
|-------3--5------------------------------------------------------------|
|-2-4-5-3--5--0-0-0-0-2-3-5-0-0-0-0-0-0-0-0-2-4-5-0-0-0-0-0-0-0-0-2-3-5-|

|-------------------------------------|
|-------------------------------------|
|-------------------------------------| palm mute the E string throughout except the
|-------------------------------------| power chords
|---------------------3-3-3-3-5-5-5-5-|
|-0-0-0-0-0-0-0-2-4-5-3-3-3-3-5-5-5-5-|

pre-chorus (both guitars)
|-------------------------------------------------|
|-------------------------------------------------|
|-------------------------------------------------|
|-------------------------------------------------|
|-------4-3-4-------6-5-6-------4-3-4-------------|
|-0-0-0-------0-0-0-------0-0-0-------2-3-5-2-4-5-|

|-------------------------------------------|
|-------------------------------------------|
|-------------------------------------------|
|-------------------------------------------| palm mute the E string throughout
|-------4-3-4-------6-5-6-------4-3-4-3--5--| on the second part guitar 2 doubles up
|-0-0-0-------0-0-0-------0-0-0-------3--5--| the open E notes
play pre-chorus twice

chorus (both guitars)
|-------------------------------------------------------------|
|--------------------------------------------------4-6-6b7--4-|
|------------------------------------------------5------------|
|-------------------------------------------------------------|
|-------------------------------------------------------------|
|-0-0-2-4-5-4-2-4--4-2-4-5-4-2-0--0-2-4-5-4-2-4---------------|

|----------------------------------------------------------------|
|----------------------------------------------------------------|
|----------------------------------------------------------------|
|----------------------------------------------------------------|
|----------------------------------------------------------------|
|-0-0-2-4-5-4-2-4--4-2-4-5-4-2-0--0-2-4-5-4-2-4--0-0-0-5-0-0-4-2-|

solo 2 (guitar 2)
|-12-14b16r14p12----------------14-15p14-13-14p13-12-13p12-11-12p11-|
|----------------12-14b16r14p12-------------------------------------|
|-------------------------------------------------------------------|
|-------------------------------------------------------------------|
|-------------------------------------------------------------------|
|-------------------------------------------------------------------|

|-10-11p10-9-10p9---------------------------------------------------|
|-----------------13-15p13-12-14p12-11-13p11-10-12p10-9-11p9--------|
|------------------------------------------------------------14trem-|
|-------------------------------------------------------------------|
|-------------------------------------------------------------------|
|-------------------------------------------------------------------|

repeat verse, pre-chorus and chorus

solo 3 (guitar 2)
|------------------------------------------------|
|-12-14b16r14--12-14p12-11-13p11-10-12p10-9-11p9-|
|------------------------------------------------|
|------------------------------------------------|
|------------------------------------------------|
|------------------------------------------------|

bridge (both guitars)
|-------------------------------------------------------------|
|-------------------------------------------------------------|
|-------------------------------------------------5-5-5-5-5-5-|
|-5-5-5-5-5-5-3-3-3-3-3-3-------------------------x-x-x-x-x-x-|
|-3-3-3-3-3-3-1-1-1-1-1-1-7-7-7-7-7-7-6-6-6-6-6-6-3-3-3-3-3-3-|
|-------------------------7-7-7-7-7-7-6-6-6-6-6-6-------------|

|-------------------------------------|
|-------------------------------------|
|-------------------------------------|
|-------------------------------------|
|-1-1-1-1-1-1-3-3-3-3-3-3-6-6-6-6-6-6-|
|-1-1-1-1-1-1-3-3-3-3-3-3-6-6-6-6-6-6-|

play bridge twice

solo 4 (both guitars?)
|-----------------------------------------------|
|-----------------------------------------------|
|-5-5-7-8--8-10-8--8-7----5-7-5--5-7-8--8-10-8--|
|----------------------8------------------------|
|-----------------------------------------------|
|-----------------------------------------------|

|---------------------------------------------------|
|---------------------------------------------------|
|-5-5-7-8--8-10-8--8-7----5-7-5--5-7-8--8-10-12-12--|
|----------------------8----------------------------| * next part on base
|---------------------------------------------------|
|---------------------------------------------------|

|----------------|
|----------------|
|----------------|
|-5-4--2---------| *if you want to play it like this with clean guitar it sounds similar 
|--------5--4-2--|
|----------------|

|-8-8-8-8-8-8-6-6-6-6-6-6-5-5-5-5-5-5-4-4-4-4-4-4-8-8-8-8-8-8-101010101010-|
|-x-x-x-x-x-x-x-x-x-x-x-x-x-x-x-x-x-x-x-x-x-x-x-x-x-x-x-x-x-x-x-x-x-x-x-x--|
|-5-5-5-5-5-5-3-3-3-3-3-3-2-2-2-2-2-2-1-1-1-1-1-1-5-5-5-5-5-5-7-7-7-7-7-7--|
|--------------------------------------------------------------------------|
|--------------------------------------------------------------------------|
|--------------------------------------------------------------------------|

|-8-8-8-8-6b7--8-8-8-8-6b7--|
|-x-x-x-x-x----x-x-x-x-x----|
|-5-5-5-5-4b5--5-5-5-5-3b4--|
|---------------------------|
|---------------------------|
|---------------------------|

|-8-8-8-8-8-8-6-6-6-6-6-6-5-5-5-5-5-5-4-4-4-4-4-4-8-8-8-8-8-8-101010101010-|
|-x-x-x-x-x-x-x-x-x-x-x-x-x-x-x-x-x-x-x-x-x-x-x-x-x-x-x-x-x-x-x-x-x-x-x-x--|
|-5-5-5-5-5-5-3-3-3-3-3-3-2-2-2-2-2-2-1-1-1-1-1-1-5-5-5-5-5-5-7-7-7-7-7-7--|
|--------------------------------------------------------------------------|
|--------------------------------------------------------------------------|
|--------------------------------------------------------------------------|

|-13131313131316161616161616--|
|-x-x-x-x-x-x-x-x-x-x-x-x-x---|
|-10101010101013131313131313--|
|-----------------------------|
|-----------------------------|
|-----------------------------|

repeat verse part 2, chorus and fade out with a solo, sorry its late and i dont have 
to figure it out
Добавлено: 22.06.2012
Другие материалы по этой песне:

Страница создана 29.03.2012
http://primanota.ru/annihilator/like-father-like-gun-chords.htm
Привет, Гость.
Предлагаем пройти революционный курс по гитаре.
Подарок от PrimaNota.Ru, забирай!