PrimaNota.ru - самый крупный в мире бесплатный архив песенных текстов, аккордов, табулатур и нот


Annihilator - No Zone - текст песни, таба, видео

Регистрация Запомнить меня
Войти через:  Facebook Google Twitter Vk Yandex Mail.ru

Annihilator - No Zone - текст песни, таба, видео

Печатать
Просмотров: 167
Авторы музыки: Ray Hartmann, Jeff Waters, Wayne Darley
Авторы текста: Jeff Waters
Annihilator - No Zone

tabbed by 
ol753_357lo@yahoo.co.uk

Tuning - E A D G B E


Both Gtrs
       PM--|    PM---------|     PM--|                PM--|
|--------------------------------------------------------------------------------------|
|--------------------------------------------------------------------------------------|
|--------------------------------------------------------------------------------------|
|------------7--------------------------5-------5------------8---8---10-10-9-8--7------|
|---5--------5----------------5---------3-------3--5---------6---6----8--8-7-6--5-[4]--|
|-\-3--0-0-0----0-0-0--0-0-0--3--0-0-0-------------3--0-0-0----------------------------|


     PM--|     PM---------|     PM--|     PM---------|
|---------------------------------------------------------|
|---------------------------------------------------------|
|---------------------------------------------------------|
|-----------7--------------------------5------------------|
|-5---------5----------------5---------3------------------|
|-3--0-0-0-----0-0-0--0-0-0--3--0-0-0-----0-0-0--0-0-0----|


     PM--|            PM|
|-------------------------------------------|
|-------------------------------------------|
|-------------------------------------------|
|-----------8----8--3-----------------------|
|-5---------6----6--1-3-3-3--6-5-3----------|
|-3--0-0-0------------1-1----------6-[4]----|


Verse
Both Gtrs
       PM----------------------|      PM------|
|--------------------------------------------------------------|
|------------------------------------------------------3--3----|
|-2--2---------------------------2--2-----------2------2--2----|
|-2--2---------------------------2--2-----------2------0--0----|
|-----------------------------------------------0--2-4---------|
|------2-2-2-2-2-2-2-2-2-2-2-2-2------2-2-2-2-2----------------|


       PM----------------------|      PM------|
|-----------------------------------------------------------------|
|-----------------------------------------------------------------|
|-2--2---------------------------2--2-----------------------------|
|-2--2---------------------------2--2-----------------------------|
|------------------------------------------------------------2----|
|------2-2-2-2-2-2-2-2-2-2-2-2-2------2-2-2-2-2-5--4-2-0-4-5------|


       PM----------------------|      PM------|
|--------------------------------------------------------------|
|------------------------------------------------------3--3----|
|-2--2---------------------------2--2-----------2------2--2----|
|-2--2---------------------------2--2-----------2------0--0----|
|-----------------------------------------------0--2-4---------|
|------2-2-2-2-2-2-2-2-2-2-2-2-2------2-2-2-2-2----------------|


       PM------------------|         PM------|
|----------------------------------------------------------------|
|----------------------------------------------------------------|
|-2--2-----------------------2--2--------------------------------|
|-2--2-----------------------2--2--------------------------------|
|----------------------------0--0---------------------------2----|
|------2-2-2-2-2-2-2-2-2-2-2-------2-2-2-2-2-2-5--4-2-0-4-5------|


Chorus 1
Both Gtrs
                          PM--|          PM--|
|---------------------------------------------------------|
|---------------------------------------------------------|
|-------------------------------2-2-4-2--------2-2-4-2----|
|-7-7-7---------9-9-9-9---------2-2-4-2--------2-2-4-2----|
|-5-5-5-7--7--7-7-7-7-7-----------------------------------|
|-------5--5--5-----------0-1-2----------0-2-0------------|


                         PM------------------|
|---------------------------------------------------|
|---------------------------------------------------|
|---------------------------------------------------|
|-7-7-7---------9-9-9-9------------------------6----|
|-5-5-5-7--7--7-7-7-7-7--0-2-3-4-4-4-4-4-4-4-4-4----|
|\------5--5--5-------------------------------------|


Both Gtrs, Gtr 3 Lead (to be added)
       PM--------------------------------------|
|------------------------------------------------------------|
|-------------------------------------------------------3--3-|
|-2--2-------------------------------------------2------2--2-|
|-2--2-------------------------------------------2------0--0-|
|------------------------------------------------0--2-4------|
|------2-2-2-2-2-2-2-2-2-2-2-2-2-2-2-2-2-2-2-2-2-------------|

       PM------------------|         PM------|
|----------------------------------------------------------------|
|----------------------------------------------------------------|
|-2--2-----------------------2--2--------------------------------|
|-2--2-----------------------2--2--------------------------------|
|----------------------------0--0---------------------------2----|
|------2-2-2-2-2-2-2-2-2-2-2-------2-2-2-2-2-2-5--4-2-0-4-5------|


Repeat Verse


Chorus 2
Both Gtrs
play 3 times
                          PM--|          PM--|
|---------------------------------------------------------|
|---------------------------------------------------------|
|-------------------------------2-2-4-2--------2-2-4-2----|
|-7-7-7---------9-9-9-9---------2-2-4-2--------2-2-4-2----|
|-5-5-5-7--7--7-7-7-7-7-----------------------------------|
|\------5--5--5-----------0-1-2----------0-2-0------------|


4th time
                         PM--------------------|
|-----------------------------------------------------------------|
|-----------------------------------------------------------------|
|------------------------------------------------6p4--------------|
|-7-7-7---------9-9-9-9------------------------------6-----2h4----|
|-5-5-5-7--7--7-7-7-7-7--0-2-3-4-4-4-4-4-4-4-4-4-------2h4--------|
|\------5--5--5---------------------------------------------------|


Gtr 1
play 4 times, Gtr 2 accentuates
                                          PM  PM  PM  PM
|--------------------------------------------------------------|
|--------------------------------------------------------------|
|-----------------------------------------------1---2---4------|
|---4p2---2--4----4p2---2-------4p2---2h4---4------------------|
|-------4------0------4----0-2------4-----0---2---4---5--------|
|-2-------------------------------------------------------0----|


Gtr 2 joins 3rd time
play twice
       PM------|      PM------|      PM------|   PM  PM  PM
|----------------------------------------------------------------|
|----------------------------------------------------------------|
|--------------------------------------------------1---2---4-----|
|----------------2--2-----------4--4-----------4-----------------|
|-4--4-----------0--0-0-0-0-0-0-2--2-2-2-2-2-0---2---4---5-------|
|-2--2-2-2-2-2-2---------------------------------------------0---|


Gtr 3
play twice
       PM----|    PM--|    PM--|   PM|     PM-----|    PM
|----------------------------------------------------------------------|
|-10-----------10-------9--------9-----10-----------10----10b12r=10----|
|-----11-11-11----11-11----9-9-9---9-9-----11-11-11----11--------------|
|----------------------------------------------------------------------|
|----------------------------------------------------------------------|
|----------------------------------------------------------------------|


Both Gtrs
play twice
|-----------------------------------------|
|---------3-------------------------------|
|---------2-------------------------------|
|-4-------0-------4-----------------------|
|-4-------0-------2------0h2-2-2-2p0------|
|-2----------------------------------4----|


Both Gtrs
play twice
                                    PM--|
|----------------------------------------------------|
|----------------------------------------------------|
|-------------4--4--------6--6-----------------------|
|-6--6--------2--2--------4--4--------------2p1------|
|-4--4--------2--2--------4--4------------2-----2----|
|-----------------------------------0-2-4------------|


Both Gtrs, Gtr 3 Lead (to be added)
       PM--------------------------------------|
|------------------------------------------------------------|
|-------------------------------------------------------3--3-|
|-2--2-------------------------------------------2------2--2-|
|-2--2-------------------------------------------2------0--0-|
|------------------------------------------------0--2-4------|
|------2-2-2-2-2-2-2-2-2-2-2-2-2-2-2-2-2-2-2-2-2-------------|


       PM------------------|         PM------|
|----------------------------------------------------------------|
|----------------------------------------------------------------|
|-2--2-----------------------2--2--------------------------------|
|-2--2-----------------------2--2--------------------------------|
|----------------------------0--0---------------------------2----|
|------2-2-2-2-2-2-2-2-2-2-2-------2-2-2-2-2-2-5--4-2-0-4-5------|


       PM----------------------|      PM----------------------|
|------------------------------------------------------------------|
|------------------------------------------------------------------|
|-4--4---------------------------4--4------------------------------|
|-4--4---------------------------4--4------------------------------|
|------------------------------------------------------------------|
|------4-4-4-4-4-4-4-4-4-4-4-4-4------4-4-4-4-4-4-4-4-4-4-4-4-4----|


       PM----------------|
|--------------------------------------------------|
|--------------------------------------------------|
|-6--6---------------------------------------------|
|-6--6---------------------------------------------|
|--------------------------------------------------|
|------6-6-6-6-6-6-6-6-6-6-\---6--5--4--3--2--1----| 


Both Gtrs
play 2 times
                                         PM  PM  PM  PM
|--------------------------------------------------------------|
|--------------------------------------------------------------|
|-----------------------------------------------1---2---4------|
|---4p2---2--4----4p2---2-------4p2---2h4---4------------------|
|-------4------0------4----0-2------4-----0---2---4---5--------|
|-2-------------------------------------------------------0----|


Gtr 1
|--------------------------------------|
|--------------------------------------|
|--------------------------------------|
|---4p2---2--4----4p2---2----4\--------|
|-------4------0------4----0-2\------2-|
|-2----------------------------------0-|


Gtr 2
|--------------------------------------|
|--------------------------------------|
|--------------------------------------|
|--------------2-------2-4\------------|
|-2-4----------0-------0-2\-------2----|
|-0-2--------2--------------------0----|


Verse
Both Gtrs
       PM--------------------------------------|
|------------------------------------------------------------|
|-------------------------------------------------------3----|
|-2--2-------------------------------------------2------2----|
|-2--2-------------------------------------------2------0----|
|------------------------------------------------0--2-4------|
|------2-2-2-2-2-2-2-2-2-2-2-2-2-2-2-2-2-2-2-2-2-------------|


       PM----------------------|      PM------|
|-----------------------------------------------------------------|
|-----------------------------------------------------------------|
|-2--2---------------------------2--2-----------------------------|
|-2--2---------------------------2--2-----------------------------|
|------------------------------------------------------------2----|
|------2-2-2-2-2-2-2-2-2-2-2-2-2------2-2-2-2-2-5--4-2-0-4-5------|


       PM--------------------------------------|
|------------------------------------------------------------|
|-------------------------------------------------------3----|
|-2--2-------------------------------------------2------2----|
|-2--2-------------------------------------------2------0----|
|------------------------------------------------0--2-4------|
|------2-2-2-2-2-2-2-2-2-2-2-2-2-2-2-2-2-2-2-2-2-------------|


       PM------------------|         PM------|
|----------------------------------------------------------------|
|----------------------------------------------------------------|
|-2--2-----------------------2--2--------------------------------|
|-2--2-----------------------2--2--------------------------------|
|----------------------------0--0---------------------------2----|
|------2-2-2-2-2-2-2-2-2-2-2-------2-2-2-2-2-2-5--4-2-0-4-5------|


Both Gtrs
play 3 times
                          PM--|          PM--|
|---------------------------------------------------------|
|---------------------------------------------------------|
|-------------------------------2-2-4-2--------2-2-4-2----|
|-7-7-7---------9-9-9-9---------2-2-4-2--------2-2-4-2----|
|-5-5-5-7--7--7-7-7-7-7-----------------------------------|
|\------5--5--5-----------0-1-2----------0-2-0------------|


Both Gtrs, Gtr 3 Lead (to be added)
                         PM--|
|--------------------------------------------------------------------------------|
|--------------------------------------------------------------------------------|
|--------------------------------------------------------------------------------|
|-7-7-7---------9-9-9-9--------------------4--------------4--------------4-------|
|-5-5-5-7--7--7-7-7-7-7--------------------2--------------2--------------2--4\---|
|\------5--5--5----------0-1-2-5-2-0-5-2-0----5-2-0-5-2-0----5-2-0-5-2-0----2\---|


Tablature Legend
----------------
 h   - hammer-on
 p   - pull-off
 b   - bend
 pb  - pre-bend
 r   - bend release (if no number after the r, then release immediately)
 /\  - slide into or out of (from/to "nowhere")
 s   - legato slide
 S   - shift slide
  - natural harmonic
[n]  - artificial harmonic
n(n) - tapped harmonic
 ~   - vibrato
 tr  - trill
 T   - tap
 TP  - trem. picking
 PM  - palm muting
\n/  - tremolo bar dip; n = amount to dip
 \n  - tremolo bar down
 n/  - tremolo bar up
/n\  - tremolo bar inverted dip
 =   - hold bend; also acts as connecting device for hammers/pulls
 <>  - volume swell (louder/softer)
 x   - on rhythm slash represents muted slash
 o   - on rhythm slash represents single note slash

Misc Legend
-----------
 |  - bar
||  - double bar
||o - repeat start
o|| - repeat end
*|  - double bar (ending)
 :  - bar (freetime)
 $  - Segno
 &  - Coda
Tempo markers -  = BPM(8/16=s8/s16), where s8 = swing 8ths, s16 = swing 16ths
Добавлено: 02.04.2012
Другие материалы по этой песне:

Страница создана 07.03.2012
http://primanota.ru/annihilator/no-zone-chords.htm
Привет, Гость.
Предлагаем пройти революционный курс по гитаре.
Подарок от PrimaNota.Ru, забирай!