PrimaNota.ru - самый крупный в мире бесплатный архив песенных текстов, аккордов, табулатур и нот


Annihilator - Knight Jumps Queen - аккорды и текст, таба, бас-таба, видео

Регистрация Запомнить меня
Войти через:  Facebook Google Twitter Vk Yandex Mail.ru

Annihilator - Knight Jumps Queen - аккорды и текст, таба, бас-таба, видео

Печатать
Просмотров: 170
Авторы музыки: Jeff Waters
Авторы текста: Jeff Waters
Knight Jumps Queen
Annihilator
Intro/Verse-Part:
[G:-----------------------------------------------
D:-----------------------------------------------
A:---------------------------------------2-1-----
E:-3-0-0-3-2-1-0-0-3-0-3-0-4s3-0-0-3-0-0-----3-0-

G:--------------------
D:--------------------
A:--------------------
E:-0-3-0-3-0-0-3-3-0--]
When it comes to change (i.e. from Verse to Chorus)
just the ending is a bit different with this off-beats
[G:-----------------------------------------------5-5-------------
D:-----------------------------------------------7-7-------------
A:---------------------------------------2-1---------------------
E:-3-0-0-3-2-1-0-0-3-0-3-0-4s3-0-0-3-0-0-----3-0-----------------]
Добавлено: 23.10.2013
Другие материалы по этой песне:

Страница создана 25.02.2012
http://primanota.ru/annihilator/knight-jumps-queen-chords.htm
Привет, Гость.
Предлагаем пройти революционный курс по гитаре.
Подарок от PrimaNota.Ru, забирай!