PrimaNota.ru - самый крупный в мире бесплатный архив песенных текстов, аккордов, табулатур и нот


Annihilator - Epic Of War - текст песни, таба, бас-таба, видео

Регистрация Запомнить меня
Войти через:  Facebook Google Twitter Vk Yandex Mail.ru

Annihilator - Epic Of War - текст песни, таба, бас-таба, видео

Печатать
Просмотров: 141
Авторы музыки: Jeff Waters
Авторы текста: Jeff Waters
As recorded by Annihilator
(From the 2001 Album CARNIVAL DIABLOS)

Transcribed by Pete (Delirium_Veil)
	

Words and Music by Jeff Waters
Arranged by Annihilator

Gtr I (D A D G B E) - 'Untitled'
Gtr II (D A D G B E) - 'Untitled'
Gtr III (D A D G B E) - 'Untitled'
Gtr IV (D A D G B E) - 'Untitled'

 Intro
  Q=196
  Dm7
 4/4
  Gtrs I, II
    PM  PM|    PM|        PM  PM|    PM|
  E E E E E E  E E    E   E E E E E  E E
|------------------|---------------------|
|------------------|---------------------|
|-5---5-----5------|--5-----5-----5------|
|-3---3-----3------|--3-----3-----3------|
|-5---5-----5------|--5-----5-----5------|
|---0---0-0----0-0-|------0---0-0----0-0-|
|
| Gtr III
| H       E E  E E   +E   Q   Q   Q.
|------------------|---------------------|
|----------------8-|-(8)-----------------|
|---------7-9-10---|-----10---9---7------|
|------------------|---------------------|
|------------------|---------------------|
|------------------|---------------------|


  Dm6
      PM  PM|    PM|        PM  PM|       PM|
   E  E E E E E  E E    E   E E E E E     E E
|--------------------|------------------------|
|--------------------|------------------------|
|--4----4-----4------|--4-----4-----4---------|
|--3----3-----3------|--3-----3-----3---------|
|--5----5-----5------|--5-----5-----5---------|
|-----0---0-0----0-0-|------0---0-0-------0-0-|
|
| +Q    Q   E E  E E   +E   Q   Q   Q.
|--------------------|------------------------|
|------------------8-|-(8)--------------------|
|-(7)-------7-9-10---|-----10---9---9b10======|
|--------------------|------------------------|
|--------------------|------------------------|
|--------------------|------------------------|


  Dm+5
       PM  PM|    PM|        PM  PM|    PM|
   E   E E E E E  E E    E   E E E E E  E E
|---------------------|---------------------|
|---------------------|---------------------|
|--3-----3-----3------|--3-----3-----3------|
|--3-----3-----3------|--3-----3-----3------|
|--5-----5-----5------|--5-----5-----5------|
|------0---0-0----0-0-|------0---0-0----0-0-|
|
|  ~~~~
| +Q     Q   E E  E E   +E   Q   Q   Q.
|---------------------|---------------------|
|-------------------8-|-(8)-----------------|
|-(9)r-------7-9-10---|-----10---9---7------|
|---------------------|---------------------|
|---------------------|---------------------|
|---------------------|---------------------|


    Dm6
         PM       PM--|         PM--|
     E   E    E   E    E   E    E   E
||----------------------------------------||
||o--------------------------------------o||
||---4--------4------------4--------------||
||---3--------3------------3--------------||
||o--5--------5------------5-------------o||
||-------0--------0----0--------0---0-----||
|
|    T        T        T        T
|    S S S S  S S S S  S S S S  S S S S
||----------------------------------------||
||o--------------------------------------o||
||--12p4h5p4-12p4h5p4-12p4h5p4-12p4h5p4---||
||----------------------------------------||
||o--------------------------------------o||
||----------------------------------------||


  Dm7
    PM  PM|      PM|          PM   PM|     PM|
  E E E E  E  E  E  E     E   E E  E E  E  E E
|---------------------|------------------------|
|---------------------|------------------------|
|-5---5-------5-------|---5-----5-------5------|
|-3---3-------3-------|---3-----3-------3------|
|-5---5-------5-------|---5-----5-------5------|
|---0---0--0-----0--0-|-------0----0-0-----0-0-|
|
| H        E  E  E  E    +E   Q    Q    Q.
|---------------------|------------------------|
|-------------------8-|--(8)-------------------|
|----------7--9-10----|------10----9----7------|
|---------------------|------------------------|
|---------------------|------------------------|
|---------------------|------------------------|
|
| Gtr IV
| H        E  E  E  E    +E   Q    Q    Q.
|---------------------|------------------------|
|------------------11-|-(11)-------------------|
|---------10-12-14----|------14---12---10------|
|---------------------|------------------------|
|---------------------|------------------------|
|---------------------|------------------------|


  Dm6
       PM  PM|      PM|          PM   PM|        PM|
    E  E E E  E  E  E  E     E   E E  E E  E     E E
|------------------------|---------------------------|
|------------------------|---------------------------|
|---4----4-------4-------|---4-----4-------4---------|
|---3----3-------3-------|---3-----3-------3---------|
|---5----5-------5-------|---5-----5-------5---------|
|------0---0--0-----0--0-|-------0----0-0--------0-0-|
|
|  +Q    Q    E  E  E  E    +E   Q    Q    Q.
|------------------------|---------------------------|
|----------------------8-|--(8)----------------------|
|--(7)--------7--9-10----|------10----9----9b10======|
|------------------------|---------------------------|
|------------------------|---------------------------|
|------------------------|---------------------------|
|
|  +Q    Q    E  E  E  E    +E   Q    Q    Q.
|------------------------|---------------------------|
|---------------------11-|-(11)----------------------|
|-(10)-------10-12-14----|------14---12---12b14======|
|------------------------|---------------------------|
|------------------------|---------------------------|
|------------------------|---------------------------|


  Dm+5
        PM  PM|      PM|          PM   PM---|     PM|
    E   E E E  E  E  E  E     E   E E  E    E  E  E E
|-------------------------|---------------------------|
|-------------------------|---------------------------|
|---3-----3-------3-------|---3-----3----------3------|
|---3-----3-------3-------|---3-----3----------3------|
|---5-----5-------5-------|---5-----5----------5------|
|-------0---0--0-----0--0-|-------0----0----0-----0-0-|
|
|   ~~~~~
|  +Q     Q    E  E  E  E    +E   Q    Q       Q.
|-------------------------|---------------------------|
|-----------------------8-|--(8)-10---10b11----8------|
|--(9)r--------7--9-10----|---------------------------|
|-------------------------|---------------------------|
|-------------------------|---------------------------|
|-------------------------|---------------------------|
|
|   ~~~~~
|  +Q     Q    E  E  E  E    +E   Q    Q       Q.
|-------------------------|---------------------------|
|----------------------11-|-(11)-13---13b15---11------|
|-(12)r-------10-12-14----|---------------------------|
|-------------------------|---------------------------|
|-------------------------|---------------------------|
|-------------------------|---------------------------|


  Dm6
        PM        PM|           PM----|           PM        PM|      PM|
   E    E   E     E   E     E   E     E     E     E   E     E   E  E E E
|---------------------------------------|--------------------------------|
|---------------------------------------|--------------------------------|
|--4--------4---------------4-----------|---4---------4------------4-----|
|--3--------3---------------3-----------|---3---------3------------3-----|
|--5--------5---------------5-----------|---5---------5------------5-----|
|-------0---------0---0---------0-----0-|---------0---------0---0----0-0-|
|
|  Q       +Q        +Q        +Q          +Q        +Q        +H
|---------------------------------------|--------------------------------|
|-10b11r==(10)b11r==(10)b11r==(10)b11r==|=(10)b11r==(10)b11r==(10)-------|
|---------------------------------------|--------------------------------|
|---------------------------------------|--------------------------------|
|---------------------------------------|--------------------------------|
|---------------------------------------|--------------------------------|
|
|  Q       +Q        +Q        +Q          +Q        +Q        +H
|---------------------------------------|--------------------------------|
|-13b15r==(13)b15r==(13)b15r==(13)b15r==|=(13)b15r==(13)b15r==(13)-------|
|---------------------------------------|--------------------------------|
|---------------------------------------|--------------------------------|
|---------------------------------------|--------------------------------|
|---------------------------------------|--------------------------------|


   Chorus
    D
      PM  PM    PM      PM  PM            PM  PM    PM      PM  PM
    E E E E E E E E   E E E E E E E E   E E E E E E E E   E E E E E E E E
||------------------|-----------------|-----------------|-------------------||
||o-----------------|-----------------|-----------------|------------------o||
||------------------|-----------------|-----------------|-------------------||
||------------------|-----------------|-----------------|-------------------||
||o-5---5---3h5---3h|=5---5---3-------|-5---5---3h5---3h|=5---5---3--------o||
||--0-0-0-0-0-0-0-0-|-0-0-0-0-0-0-3p0-|-0-0-0-0-0-0-0-0-|-0-0-0-0-0-0-3p0---||


  Gtr I
    PM  PM    PM      PM  PM            PM  PM    PM      PM  PM
  E E E E E E E E   E E E E E E E E   E E E E E E E E   E E E E E E E E
|-----------------|-----------------|-----------------|-----------------|
|-----------------|-----------------|-----------------|-----------------|
|-----------------|-----------------|-----------------|-----------------|
|-----------------|-----------------|-----------------|-----------------|
|-5---5---3h5---3h|=5---5---3-------|-5---5---3h5---3h|=5---5---3-------|
|-0-0-0-0-0-0-0-0-|-0-0-0-0-0-0-3p0-|-0-0-0-0-0-0-0-0-|-0-0-0-0-0-0-3p0-|
|
| Gtr II
|   PM  PM    PM      PM  PM            PM  PM    PM      PM  PM
| E E E E E E E E   E E E E E E E E   E E E E E E E E   E E E E E E E E
|-----------------|-----------------|-----------------|-----------------|
|-----------------|-----------------|-----------------|-----------------|
|-----------------|-----------------|-----------------|-----------------|
|-----------------|-----------------|-----------------|-----------------|
|-8---8---7h8---7h|=8---8---7-------|-8---8---7h8---7h|=8---8---7-------|
|-0-0-0-0-0-0-0-0-|-0-0-0-0-0-0-3p0-|-0-0-0-0-0-0-0-0-|-0-0-0-0-0-0-3p0-|


  D5      C5D5  C5  D5      C5        D5      C5D5
  Gtrs I, II
    PM  PM    PM      PM  PM            PM  PM    PM|
  E E E E E E E E   E E E E E E E E   E E E E E E E E   W
|-----------------|-----------------|-----------------|------|
|-----------------|-----------------|-----------------|------|
|-----------------|-----------------|-----------------|------|
|-7---7---5s7---5-|-7---7---5-------|-7---7---5s7-----|------|
|-5---5---3s5---3-|-5---5---3-------|-5---5---3s5-----|------|
|-0-0-0-0-----0---|-0-0-0-0---0-3p0-|-0-0-0-0-----0-0-|------|


   Verse
    Dm7                                 Dm6
      PM  PM|   PM|     PM  PM|   PM|     PM  PM|   PM|     PM  PM|   PM|
    E E E E E E E E   E E E E E E E E   E E E E E E E E   E E E E E E E E
||------------------|-----------------|-----------------|------------------|
||o-----------------|-----------------|-----------------|------------------|
||--5---5-----5-----|-5---5-----5-----|-4---4-----4-----|-4---4-----4------|
||--3---3-----3-----|-3---3-----3-----|-3---3-----3-----|-3---3-----3------|
||o-5---5-----5-----|-5---5-----5-----|-5---5-----5-----|-5---5-----5------|
||----0---0-0---0-0-|---0---0-0---0-0-|---0---0-0---0-0-|---0---0-0---0-0--|


  Dm+5                                Dm6
    PM  PM|   PM|     PM  PM|   PM|     PM  PM|   PM|     PM  PM|   PM|
  E E E E E E E E   E E E E E E E E   E E E E E E E E   E E E E E E E E
|-----------------|-----------------|-----------------|------------------||
|-----------------|-----------------|-----------------|-----------------o||
|-3---3-----3-----|-3---3-----3-----|-4---4-----4-----|-4---4-----4------||
|-3---3-----3-----|-3---3-----3-----|-3---3-----3-----|-3---3-----3------||
|-5---5-----5-----|-5---5-----5-----|-5---5-----5-----|-5---5-----5-----o||
|---0---0-0---0-0-|---0---0-0---0-0-|---0---0-0---0-0-|---0---0-0---0-0--||


   Chorus
    $
    D
      PM  PM    PM      PM  PM            PM  PM    PM      PM  PM
    E E E E E E E E   E E E E E E E E   E E E E E E E E   E E E E E E E E
||------------------|-----------------|-----------------|-------------------||
||o-----------------|-----------------|-----------------|------------------o||
||------------------|-----------------|-----------------|-------------------||
||------------------|-----------------|-----------------|-------------------||
||o-5---5---3h5---3h|=5---5---3-------|-5---5---3h5---3h|=5---5---3--------o||
||--0-0-0-0-0-0-0-0-|-0-0-0-0-0-0-3p0-|-0-0-0-0-0-0-0-0-|-0-0-0-0-0-0-3p0---||


  Gtr I
    PM  PM    PM      PM  PM            PM  PM    PM      PM  PM
  E E E E E E E E   E E E E E E E E   E E E E E E E E   E E E E E E E E
|-----------------|-----------------|-----------------|-----------------|
|-----------------|-----------------|-----------------|-----------------|
|-----------------|-----------------|-----------------|-----------------|
|-----------------|-----------------|-----------------|-----------------|
|-5---5---3h5---3h|=5---5---3-------|-5---5---3h5---3h|=5---5---3-------|
|-0-0-0-0-0-0-0-0-|-0-0-0-0-0-0-3p0-|-0-0-0-0-0-0-0-0-|-0-0-0-0-0-0-3p0-|
|
| Gtr II
|   PM  PM    PM      PM  PM            PM  PM    PM      PM  PM
| E E E E E E E E   E E E E E E E E   E E E E E E E E   E E E E E E E E
|-----------------|-----------------|-----------------|-----------------|
|-----------------|-----------------|-----------------|-----------------|
|-----------------|-----------------|-----------------|-----------------|
|-----------------|-----------------|-----------------|-----------------|
|-8---8---7h8---7h|=8---8---7-------|-8---8---7h8---7h|=8---8---7-------|
|-0-0-0-0-0-0-0-0-|-0-0-0-0-0-0-3p0-|-0-0-0-0-0-0-0-0-|-0-0-0-0-0-0-3p0-|


  D5      C5D5  C5  D5      C5        D5      C5D5
  Gtrs I, II
    PM  PM    PM      PM  PM            PM  PM    PM|
  E E E E E E E E   E E E E E E E E   E E E E E E E E   W
|-----------------|-----------------|-----------------|------|
|-----------------|-----------------|-----------------|------|
|-----------------|-----------------|-----------------|------|
|-7---7---5s7---5-|-7---7---5-------|-7---7---5s7-----|------|
|-5---5---3s5---3-|-5---5---3-------|-5---5---3s5-----|------|
|-0-0-0-0-----0---|-0-0-0-0---0-3p0-|-0-0-0-0-----0-0-|------|


   Verse
    Dm7                                 Dm6
      PM  PM|   PM|     PM  PM|   PM|     PM  PM|   PM|     PM  PM|   PM|
    E E E E E E E E   E E E E E E E E   E E E E E E E E   E E E E E E E E
||------------------|-----------------|-----------------|------------------|
||o-----------------|-----------------|-----------------|------------------|
||--5---5-----5-----|-5---5-----5-----|-4---4-----4-----|-4---4-----4------|
||--3---3-----3-----|-3---3-----3-----|-3---3-----3-----|-3---3-----3------|
||o-5---5-----5-----|-5---5-----5-----|-5---5-----5-----|-5---5-----5------|
||----0---0-0---0-0-|---0---0-0---0-0-|---0---0-0---0-0-|---0---0-0---0-0--|


                                                               To Coda
  Dm+5                                Dm6
    PM  PM|   PM|     PM  PM|   PM|     PM  PM|   PM|     PM  PM|   PM|
  E E E E E E E E   E E E E E E E E   E E E E E E E E   E E E E E E E E
|-----------------|-----------------|-----------------|------------------||
|-----------------|-----------------|-----------------|-----------------o||
|-3---3-----3-----|-3---3-----3-----|-4---4-----4-----|-4---4-----4------||
|-3---3-----3-----|-3---3-----3-----|-3---3-----3-----|-3---3-----3------||
|-5---5-----5-----|-5---5-----5-----|-5---5-----5-----|-5---5-----5-----o||
|---0---0-0---0-0-|---0---0-0---0-0-|---0---0-0---0-0-|---0---0-0---0-0--||


 Guitar Solo - Jeff Waters
  Dm7
  Gtr III
   Q       +H.                  +H.            +E   S  S
|----------------------------|---------------------------|
|-13b15r==(13)b15============|=(13)-----------(13)r13p10-|
|----------------------------|---------------------------|
|----------------------------|---------------------------|
|----------------------------|---------------------------|
|----------------------------|---------------------------|
|
| Gtr II
|  W                            +W
|----------------------------|---------------------------|
|----------------------------|---------------------------|
|--5-------------------------|--(5)----------------------|
|--3-------------------------|--(3)----------------------|
|--5-------------------------|--(5)----------------------|
|----------------------------|---------------------------|
|
| Gtr I
|       PM         PM|   PM|        PM  PM|     PM-|
|  E    E   E      E E E E E     E  E E E E E   E   E
|----------------------------|---------------------------|
|----------------------------|---------------------------|
|--5--------5----------5-----|---5----5-----5------------|
|--3--------3----------3-----|---3----3-----3------------|
|--5--------5----------5-----|---5----5-----5------------|
|-------0----------0-0---0-0-|------0---0-0-----0---0----|


  Dm6
   Q    +Q        H          H        E   E  E  E
|-------------------------|-----------------------|
|-13---(13)b16============|=======================|
|-------------------------|-----------------10h12-|
|-------------------------|-------------/12-------|
|-------------------------|-----------------------|
|-------------------------|-----------------------|
|
|  W                        +W
|-------------------------|-----------------------|
|-------------------------|-----------------------|
|--4----------------------|-(4)-------------------|
|--3----------------------|-(3)-------------------|
|--5----------------------|-(5)-------------------|
|-------------------------|-----------------------|
|
|    PM         PM|   PM|       PM  PM|      PM|
|  E E   E      E E E E E    E  E E E E   E  E  E
|-------------------------|-----------------------|
|-------------------------|-----------------------|
|--4-----4----------4-----|--4----4-------4-------|
|--3-----3----------3-----|--3----3-------3-------|
|--5-----5----------5-----|--5----5-------5-------|
|----0----------0-0---0-0-|-----0---0-0------0--0-|


  Dm+5
   E     +E       +H.              +H.            +E   E
|-------------------------------|------------------------|
|-------------------------------|------------------------|
|-12b14r(12)b14==(12)-----------|-(12)r==========(12)p10s|
|-------------------------------|------------------------|
|-------------------------------|------------------------|
|-------------------------------|------------------------|
|
|  W                               +W
|-------------------------------|------------------------|
|-------------------------------|------------------------|
|--3----------------------------|--(3)-------------------|
|--3----------------------------|--(3)-------------------|
|--5----------------------------|--(5)-------------------|
|-------------------------------|------------------------|
|
|         PM          PM|   PM|        PM  PM|     PM-|
|  E      E        E  E E E E E     E  E E E E E   E   E
|-------------------------------|------------------------|
|-------------------------------|------------------------|
|--3---------------3------3-----|---3----3-----3---------|
|--3---------------3------3-----|---3----3-----3---------|
|--5---------------5------5-----|---5----5-----5---------|
|---------0-----------0-0---0-0-|------0---0-0-----0---0-|


  Dm6
  Q   +H.                +Q     Q   H
|----------------------|--------------------|
|----------------------|--------------------|
|-9---(9)b10-----------|-(9)\---------------|
|----------------------|--------------------|
|----------------------|--------------------|
|----------------------|--------------------|
|
| W                      +W
|----------------------|--------------------|
|----------------------|--------------------|
|-4--------------------|-(4)----------------|
|-3--------------------|-(3)----------------|
|-5--------------------|-(5)----------------|
|----------------------|--------------------|
|
|   PM       PM|   PM|        PM  PM|   PM|
| E E  E     E E E E E    E   E E E E E E E
|----------------------|--------------------|
|----------------------|--------------------|
|-4----4---------4-----|--4-----4-----4-----|
|-3----3---------3-----|--3-----3-----3-----|
|-5----5---------5-----|--5-----5-----5-----|
|---0--------0-0---0-0-|------0---0-0---0-0-|


  Dm7
    E   E  E  E  E  E  E  E    E   E  E  E E  E  E  E
|---------------------------|-------------------------|
|-[10]h11p10----------10-10h|=11p=10------------10h11p|
|------------12-10-12-------|--------12-10-9-10-------|
|---------------------------|-------------------------|
|---------------------------|-------------------------|
|---------------------------|-------------------------|
|
|   W                         +W
|---------------------------|-------------------------|
|---------------------------|-------------------------|
|---5-----------------------|-(5)---------------------|
|---3-----------------------|-(3)---------------------|
|---5-----------------------|-(5)---------------------|
|---------------------------|-------------------------|
|
|       PM    PM|      PM|         PM    PM|     PM|
|   E   E  E  E  E  E  E  E    E   E  E  E E  E  E  E
|---------------------------|-------------------------|
|---------------------------|-------------------------|
|---5------5--------5-------|--5------5-------5-------|
|---3------3--------3-------|--3------3-------3-------|
|---5------5--------5-------|--5------5-------5-------|
|-------0-----0--0-----0--0-|------0-----0-0-----0--0-|


  Dm6
   E  E  E  E  E  E  E  E    E   E  S  S  S  S  S  S  S  S  S  S  S  S
|-------------------------|--------------------------------------------|
|-10----------10h11p10----|--------10h11p10----------10h13p10----------|
|-------------------------|--------------------------------------------|
|----12-10-12----------12-|-10--12----------12-10-12----------12-10-12-|
|-------------------------|--------------------------------------------|
|-------------------------|--------------------------------------------|
|
|  W                        +W
|-------------------------|--------------------------------------------|
|-------------------------|--------------------------------------------|
|--4----------------------|-(4)----------------------------------------|
|--3----------------------|-(3)----------------------------------------|
|--5----------------------|-(5)----------------------------------------|
|-------------------------|--------------------------------------------|
|
|     PM    PM|      PM|         PM       PM---|            PM---|
|  E  E  E  E  E  E  E  E    E   E  E     E     E     E     E     E
|-------------------------|--------------------------------------------|
|-------------------------|--------------------------------------------|
|--4-----4--------4-------|--4------4-----------------4----------------|
|--3-----3--------3-------|--3------3-----------------3----------------|
|--5-----5--------5-------|--5------5-----------------5----------------|
|-----0-----0--0-----0--0-|------0--------0-----0-----------0-----0----|


  Dm+5
   S  S  S  S  S  S  S  S  S  S  S  S  S  S  S  S
|-------------------10h13p10----------10h12p10----|
|-10h11p10----------------------------------------|
|-------------------------------------------------|
|----------12-10-12----------12-10-12----------12-|
|-------------------------------------------------|
|-------------------------------------------------|
|
|  W
|-------------------------------------------------|
|-------------------------------------------------|
|--3----------------------------------------------|
|--3----------------------------------------------|
|--5----------------------------------------------|
|-------------------------------------------------|
|
|        PM          PM---|            PM---|
|  E     E     E     E     E     E     E     E
|-------------------------------------------------|
|-------------------------------------------------|
|--3-----------3-----------------3----------------|
|--3-----------3-----------------3----------------|
|--5-----------5-----------------5----------------|
|--------0-----------0-----0-----------0-----0----|


   S   S  S  S  S  S  S  S  S  S  S  S  S  S  S  S
|--------10h13p10----------10h15p10----------10h13-|
|--------------------------------------------------|
|--------------------------------------------------|
|-10--12----------12-10-12----------12-10-12-------|
|--------------------------------------------------|
|--------------------------------------------------|
|
| +W
|--------------------------------------------------|
|--------------------------------------------------|
|-(3)----------------------------------------------|
|-(3)----------------------------------------------|
|-(5)----------------------------------------------|
|--------------------------------------------------|
|
|         PM          PM---|            PM---|
|  E      E     E     E     E     E     E     E
|--------------------------------------------------|
|--------------------------------------------------|
|--3------------3-----------------3----------------|
|--3------------3-----------------3----------------|
|--5------------5-----------------5----------------|
|---------0-----------0-----0-----------0-----0----|


  Dm6
   S  S  S  S  S  S  S  S  S  S  S  S  S  S  S  S
|-10----10h12p10----------------------------------|
|----12----------13-11-10h11p10-------------------|
|-------------------------------12p10----10-------|
|-------------------------------------12----12p10-|
|-------------------------------------------------|
|-------------------------------------------------|
|
|  W
|-------------------------------------------------|
|-------------------------------------------------|
|--4----------------------------------------------|
|--3----------------------------------------------|
|--5----------------------------------------------|
|-------------------------------------------------|
|
|        PM          PM---|            PM---|
|  E     E     E     E     E     E     E     E
|-------------------------------------------------|
|-------------------------------------------------|
|--4-----------4-----------------4----------------|
|--3-----------3-----------------3----------------|
|--5-----------5-----------------5----------------|
|--------0-----------0-----0-----------0-----0----|


                              ~~~~~~~
   S   S  S  S  S  S  S  S S  S  +Q.
|----------------------------------------|
|----------------------------------------|
|----------------------------------------|
|-12--10----10---------------------------|
|--------12----12-10-12p10s8-------------|
|----------------------------12-(12)-----|
|
| +W
|----------------------------------------|
|----------------------------------------|
|-(4)------------------------------------|
|-(3)------------------------------------|
|-(5)------------------------------------|
|----------------------------------------|
|
|         PM          PM---|         PM|
|  E      E     E     E    E      E  E E
|----------------------------------------|
|----------------------------------------|
|--4------------4-----------------4------|
|--3------------3-----------------3------|
|--5------------5-----------------5------|
|---------0-----------0----0---------0-0-|


 Bridge
          G#5
  Gtrs I, II
    PM--|    PM      PM     PM      PM----|
    E   E Q  E E +E  E   Q  E E +E  S S E E
|----------------------|--------------------|
|----------------------|--------------------|
|----------------------|--------------------|
|----------------------|--------------------|
|---------6----6-(6)---|-6----6-(6)---------|
|---0---0-6--0-6-(6)-0-|-6--0-6-(6)-0-0-0-0-|
|
| Gtr III
|  +H.            Q      W
|----------------------|--------------------|
|----------------------|--------------------|
|----------------------|--------------------|
|----------------------|--------------------|
|----------------------|--------------------|
|-(12)\----------------|--------------------|


    PM   PM      PM     PM      PM----|
  E E Q  E E +E  E   Q  E E +E  S S E E
|------------------|----------------------|
|------------------|----------------------|
|------------------|----------------------|
|------------------|----------------------|
|-----6----6-(6)---|-6----6-(6)-----------|
|---0-6--0-6-(6)-0-|-6--0-6-(6)-0-0-0-0---|
|
| W                  W
|------------------|----------------------|
|------------------|----------------------|
|------------------|----------------------|
|------------------|----------------------|
|------------------|----------------------|
|------------------|----------------------|


    PM   PM      PM     PM      PM----|
  E E Q  E E +E  E   Q  E E +E  S S E E
|------------------|--------------------|
|------------------|--------------------|
|------------------|--------------------|
|------------------|--------------------|
|-----6----6-(6)---|-6----6-(6)---------|
|---0-6--0-6-(6)-0-|-6--0-6-(6)-0-0-0-0-|


    PM   PM      PM     PM      PM----|
  E E Q  E E +E  E   Q  E E +E  S S E E
|------------------|----------------------|
|------------------|----------------------|
|------------------|----------------------|
|------------------|----------------------|
|-----6----6-(6)---|-6----6-(6)-----------|
|---0-6--0-6-(6)-0-|-6--0-6-(6)-0-0-0-0---|


  PM|        PM          PM         PM          PM----|
  E E  Q     E  E    +E  E    Q     E  E    +E  S S E   E
|--------------------------|--------------------------------|
|--------------------------|--------------------------------|
|--------------------------|--------------------------------|
|--------------------------|--------------------------------|
|------6--------6----(6)---|--6--------6----(6)-------------|
|-0-0--6-----0--6----(6)-0-|--6-----0--6----(6)-0-0-0---0---|
|
| Gtr III
| Q    Q.       Q.            Q.       H               +E
|--------------------------|--------------------------------|
|------9--------9----------|--9--------9---------------(9)\-|
|-----11b13----11b13-------|-11b13----11b13-----------(11)\-|
|--------------------------|--------------------------------|
|--------------------------|--------------------------------|
|--------------------------|--------------------------------|


    PM       PM          PM         PM          PM----|
  E E  Q     E  E    +E  E    Q     E  E    +E  S S E   E
|--------------------------|----------------------------------|
|--------------------------|----------------------------------|
|--------------------------|----------------------------------|
|--------------------------|----------------------------------|
|------6--------6----(6)---|--6--------6----(6)---------------|
|---0--6-----0--6----(6)-0-|--6-----0--6----(6)-0-0-0---0-----|
|
| Q    Q.       Q.            Q.       H               +E
|--------------------------|----------------------------------|
|------9--------9----------|--9--------9---------------(9)\---|
|-----11b13----11b13-------|-11b13----11b13-----------(11)\---|
|--------------------------|----------------------------------|
|--------------------------|----------------------------------|
|--------------------------|----------------------------------|


    PM       PM          PM         PM          PM----|
  E E  Q     E  E    +E  E    Q     E  E    +E  S S E   E
|--------------------------|--------------------------------|
|--------------------------|--------------------------------|
|--------------------------|--------------------------------|
|--------------------------|--------------------------------|
|------6--------6----(6)---|--6--------6----(6)-------------|
|---0--6-----0--6----(6)-0-|--6-----0--6----(6)-0-0-0---0---|
|
| Q    Q.       Q.            Q.       H               +E
|-----16-------16----------|-16-------16--------------(16)\-|
|-----19b21----19b21-------|-19b21----19b21-----------(19)\-|
|--------------------------|--------------------------------|
|--------------------------|--------------------------------|
|--------------------------|--------------------------------|
|--------------------------|--------------------------------|


    PM       PM            PM           PM          PM--|
  E E  Q     E   E     +E  E     Q      E  E    +E  S S E   E
|----------------------------|------------------------------------|
|----------------------------|------------------------------------|
|----------------------------|------------------------------------|
|----------------------------|------------------------------------|
|------6---------6-----(6)---|---6---------6----(6)---------------|
|---0--6-----0---6-----(6)-0-|---6------0--6----(6)-0-0-0---------|
|
|                                          ~~~~~
| Q    Q.       +Q.             +Q.        H               +E
|----------------------------|------------------------------------|
|-----19b21r===(19)b21r======|=(19)b21r===19b21-----------(19)\---|
|----------------------------|------------------------------------|
|----------------------------|------------------------------------|
|----------------------------|------------------------------------|
|----------------------------|------------------------------------|


 Interlude
  D5
       PM|   PM|        PM|   PM|        PM|   PM|        PM|   PM|
  Q  E E E E E E   Q  E E E E E E   Q  E E E E E E   Q  E E E E E E
|----------------|----------------|----------------|----------------|
|----------------|----------------|----------------|----------------|
|----------------|----------------|----------------|----------------|
|-7--7-----7-----|-7--7-----7-----|-7--7-----7-----|-7--7-----7-----|
|-5--5-----5-----|-5--5-----5-----|-5--5-----5-----|-5--5-----5-----|
|------0-0---0-0-|------0-0---0-0-|------0-0---0-0-|------0-0---0-0-|
|
| Q  E E E E E E   Q  E E E E E E   Q  E E E E E E   Q  E E E E E E
|----------------|----------------|----------------|----------------|
|----------------|----------------|----------------|----------------|
|----------2-----|----------2-----|----------2-----|----------2-----|
|------2-3---3-2-|------2-3---3-2-|------2-3---3-2-|------2-3---3-2-|
|-5--5-----------|-5--5-----------|-5--5-----------|-5--5-----------|
|----------------|----------------|----------------|----------------|


  Bb5              C5               D5
       PM|   PM|        PM|              PM|   PM|        PM|   PM|
  Q  E E E E E E   Q  E E E E E E   Q  E E E E E E   Q  E E E E E E
|----------------|----------------|----------------|----------------|
|----------------|----------------|----------------|----------------|
|----------------|----------------|----------------|----------------|
|-3--3-----3-----|-5--5-----5---5-|-7--7-----7-----|-7--7-----7-----|
|-1--1-1-1-1-1-1-|-3--3-3-3-3p0-3-|-5--5-----5-----|-5--5-----5-----|
|----------------|----------------|------0-0---0-0-|------0-0---0-0-|
|
| Q  E E E E E E   Q  E E E E E E   Q  E E E E E E   Q  E E E E E E
|----------------|----------------|----------------|----------------|
|----------------|----------------|----------------|----------------|
|----------------|----------------|----------------|----------------|
|----------3-----|--------2-3-2---|------2-3-5-3-2-|------2-3-5-3-2-|
|-1--1-3-5---5-3-|-3--3-5-------3-|-5--5-----------|-5--5-----------|
|----------------|----------------|----------------|----------------|


  D5
       PM|   PM|        PM|   PM|        PM|   PM|        PM|   PM|
  Q  E E E E E E   Q  E E E E E E   Q  E E E E E E   Q  E E E E E E
|----------------|----------------|----------------|----------------|
|----------------|----------------|----------------|----------------|
|----------------|----------------|----------------|----------------|
|-7--7-----7-----|-7--7-----7-----|-7--7-----7-----|-7--7-----7-----|
|-5--5-----5-----|-5--5-----5-----|-5--5-----5-----|-5--5-----5-----|
|------0-0---0-0-|------0-0---0-0-|------0-0---0-0-|------0-0---0-0-|
|
| Q  E E E E E E   Q  E E E E E E   Q  E E E E E E   Q  E E E E E E
|----------------|----------------|----------------|----------------|
|----------------|----------------|----------------|----------------|
|----------2-----|----------2-----|----------2-----|----------2-----|
|------2-3---3-2-|------2-3---3-2-|------2-3---3-2-|------2-3---3-2-|
|-5--5-----------|-5--5-----------|-5--5-----------|-5--5-----------|
|----------------|----------------|----------------|----------------|
|
| Gtr IV
| Q  E E E E E E   Q  E E E E E E   Q  E E E E E E   Q  E E E E E E
|----------------|----------------|----------------|----------------|
|----------------|----------------|----------------|----------------|
|----------5-----|----------5-----|----------5-----|----------5-----|
|------5-7---7-5-|------5-7---7-5-|------5-7---7-5-|------5-7---7-5-|
|-8--8-----------|-8--8-----------|-8--8-----------|-8--8-----------|
|----------------|----------------|----------------|----------------|


  Bb5              C5               D5
       PM|   PM|        PM|              PM|   PM|        PM|   PM|
  Q  E E E E E E   Q  E E E E E E   Q  E E E E E E   Q  E E E E E E
|----------------|----------------|----------------|----------------|
|----------------|----------------|----------------|----------------|
|----------------|----------------|----------------|----------------|
|-3--3-----3-----|-5--5-----5---5-|-7--7-----7-----|-7--7-----7-----|
|-1--1-1-1-1-1-1-|-3--3-3-3-3p0-3-|-5--5-----5-----|-5--5-----5-----|
|----------------|----------------|------0-0---0-0-|------0-0---0-0-|
|
| Q  E E E E E E   Q  E E E E E E   Q  E E E E E E   Q  E E E E E E
|----------------|----------------|----------------|----------------|
|----------------|----------------|----------------|----------------|
|----------------|----------------|----------------|----------------|
|----------3-----|--------2-3-2---|------2-3-5-3-2-|------2-3-5-3-2-|
|-1--1-3-5---5-3-|-3--3-5-------3-|-5--5-----------|-5--5-----------|
|----------------|----------------|----------------|----------------|
|
| Q  E E E E E E   Q  E E E E E E   Q  E E E E E E   Q  E E E E E E
|----------------|----------------|----------------|----------------|
|----------------|----------------|----------------|----------------|
|----------------|----------------|----------------|----------------|
|----------7-----|--------5-7-5---|------5-7-8-7-5-|------5-7-8-7-5-|
|-5--5-7-8---8-7-|-7--7-8-------7-|-8--8-----------|-8--8-----------|
|----------------|----------------|----------------|----------------|


   Verse
    D5
         PM|   PM|        PM|   PM|        PM|   PM|        PM|   PM|
    Q  E E E E E E   Q  E E E E E E   Q  E E E E E E   Q  E E E E E E
||-----------------|----------------|----------------|-----------------|
||o----------------|----------------|----------------|-----------------|
||-----------------|----------------|----------------|-----------------|
||--7--7-----7-----|-7--7-----7-----|-7--7-----7-----|-7--7-----7------|
||o-5--5-----5-----|-5--5-----5-----|-5--5-----5-----|-5--5-----5------|
||-------0-0---0-0-|------0-0---0-0-|------0-0---0-0-|------0-0---0-0--|


  Bb5              C5               D5                  F5    G5F5
       PM|   PM|        PM|              PM|   PM|
  Q  E E E E E E   Q  E E E E E E   Q  E E E E E E   Q  E E E E E E  4x
|----------------|----------------|----------------|-----------------||
|----------------|----------------|----------------|----------------o||
|----------------|----------------|----------------|-----------------||
|-3--3-----3-----|-5--5---------5-|-7--7-----7-----|-7---------------||
|-1--1-1-1-1-1-1-|-3--3-3-3-3p0-3-|-5--5-----5-----|-5--3-3---5-3---o||
|----------------|----------------|------0-0---0-0-|----3-3-0-5-3-0--||


  F5         G5         Bb5
  W          W          W
|----------|----------|------|
|----------|----------|------|
|----------|----------|-3----|
|-3--------|-5--------|-3----|
|-3--------|-5--------|-1----|
|-3--------|-5--------|------|


  C5         Eb5        F5
  W          W           E E  E E  E E  Q
|----------|----------|---------------------|
|----------|----------|---------------------|
|-5--------|-8--------|---------------------|
|-5--------|-8--------|-10---10---10---10\--|
|-3--------|-6--------|--8----8----8----8\--|
|----------|----------|---------------------|


    D5
         PM|   PM|        PM|   PM|        PM|   PM|        PM|   PM|
    Q  E E E E E E   Q  E E E E E E   Q  E E E E E E   Q  E E E E E E
||-----------------|----------------|----------------|-----------------|
||o----------------|----------------|----------------|-----------------|
||-----------------|----------------|----------------|-----------------|
||--7--7-----7-----|-7--7-----7-----|-7--7-----7-----|-7--7-----7------|
||o-5--5-----5-----|-5--5-----5-----|-5--5-----5-----|-5--5-----5------|
||-------0-0---0-0-|------0-0---0-0-|------0-0---0-0-|------0-0---0-0--|
|
|   Gtr III
|   Q  E E E E E E   Q  E E E E E E   Q  E E E E E E   Q  E E E E E E
||-----------------|----------------|----------------|-----------------|
||o----------------|----------------|----------------|-----------------|
||-----------2-----|----------2-----|----------2-----|----------2------|
||-------2-3---3-2-|------2-3---3-2-|------2-3---3-2-|------2-3---3-2--|
||o-5--5-----------|-5--5-----------|-5--5-----------|-5--5------------|
||-----------------|----------------|----------------|-----------------|


  Bb5              C5               D5
       PM|   PM|        PM|              PM|   PM|        PM|   PM|
  Q  E E E E E E   Q  E E E E E E   Q  E E E E E E   Q  E E E E E E
|----------------|----------------|----------------|-----------------||
|----------------|----------------|----------------|----------------o||
|----------------|----------------|----------------|-----------------||
|-3--3-----3-----|-5--5-----5---5-|-7--7-----7-----|-7--7-----7------||
|-1--1-1-1-1-1-1-|-3--3-3-3-3p0-3-|-5--5-----5-----|-5--5-----5-----o||
|----------------|----------------|------0-0---0-0-|------0-0---0-0--||
|
| Q  E E E E E E   Q  E E E E E E   Q  E E E E E E   Q  E E E E E E
|----------------|----------------|----------------|-----------------||
|----------------|----------------|----------------|----------------o||
|----------------|----------------|----------------|-----------------||
|----------3-----|--------2-3-2---|------2-3-5-3-2-|------2-3-5-3-2--||
|-1--1-3-5---5-3-|-3--3-5-------3-|-5--5-----------|-5--5-----------o||
|----------------|----------------|----------------|-----------------||


    D5
         PM|   PM|        PM|   PM|        PM|   PM|        PM|   PM|
    Q  E E E E E E   Q  E E E E E E   Q  E E E E E E   Q  E E E E E E
||-----------------|----------------|----------------|-----------------|
||o----------------|----------------|----------------|-----------------|
||-----------------|----------------|----------------|-----------------|
||--7--7-----7-----|-7--7-----7-----|-7--7-----7-----|-7--7-----7------|
||o-5--5-----5-----|-5--5-----5-----|-5--5-----5-----|-5--5-----5------|
||-------0-0---0-0-|------0-0---0-0-|------0-0---0-0-|------0-0---0-0--|
|
|   Q  E E E E E E   Q  E E E E E E   Q  E E E E E E   Q  E E E E E E
||-----------------|----------------|----------------|-----------------|
||o----------------|----------------|----------------|-----------------|
||-----------2-----|----------2-----|----------2-----|----------2------|
||-------2-3---3-2-|------2-3---3-2-|------2-3---3-2-|------2-3---3-2--|
||o-5--5-----------|-5--5-----------|-5--5-----------|-5--5------------|
||-----------------|----------------|----------------|-----------------|
|
|   Gtr IV
|   Q  E E E E E E   Q  E E E E E E   Q  E E E E E E   Q  E E E E E E
||-----------------|----------------|----------------|-----------------|
||o----------------|----------------|----------------|-----------------|
||-----------5-----|----------5-----|----------5-----|----------5------|
||-------5-7---7-5-|------5-7---7-5-|------5-7---7-5-|------5-7---7-5--|
||o-8--8-----------|-8--8-----------|-8--8-----------|-8--8------------|
||-----------------|----------------|----------------|-----------------|


                                                      D.S. al Coda
  Bb5              C5               D5
       PM|   PM|        PM|              PM|   PM|        PM|   PM|
  Q  E E E E E E   Q  E E E E E E   Q  E E E E E E   Q  E E E E E E
|----------------|----------------|----------------|-----------------||
|----------------|----------------|----------------|----------------o||
|----------------|----------------|----------------|-----------------||
|-3--3-----3-----|-5--5-----5---5-|-7--7-----7-----|-7--7-----7------||
|-1--1-1-1-1-1-1-|-3--3-3-3-3p0-3-|-5--5-----5-----|-5--5-----5-----o||
|----------------|----------------|------0-0---0-0-|------0-0---0-0--||
|
| Q  E E E E E E   Q  E E E E E E   Q  E E E E E E   Q  E E E E E E
|----------------|----------------|----------------|-----------------||
|----------------|----------------|----------------|----------------o||
|----------------|----------------|----------------|-----------------||
|----------3-----|--------2-3-2---|------2-3-5-3-2-|------2-3-5-3-2--||
|-1--1-3-5---5-3-|-3--3-5-------3-|-5--5-----------|-5--5-----------o||
|----------------|----------------|----------------|-----------------||
|
| Q  E E E E E E   Q  E E E E E E   Q  E E E E E E   Q  E E E E E E
|----------------|----------------|----------------|-----------------||
|----------------|----------------|----------------|----------------o||
|----------------|----------------|----------------|-----------------||
|----------7-----|--------5-7-5---|------5-7-8-7-5-|------5-7-8-7-5--||
|-5--5-7-8---8-7-|-7--7-8-------7-|-8--8-----------|-8--8-----------o||
|----------------|----------------|----------------|-----------------||


  &
  Dm7
    PM  PM|    PM|        PM  PM|    PM|
  E E E E E E  E E    E   E E E E E  E E
|------------------|---------------------|
|------------------|---------------------|
|-5---5-----5------|--5-----5-----5------|
|-3---3-----3------|--3-----3-----3------|
|-5---5-----5------|--5-----5-----5------|
|---0---0-0----0-0-|------0---0-0----0-0-|
|
| Gtr III
| H       E E  E E   +E   Q   Q   Q.
|------------------|---------------------|
|----------------8-|-(8)-----------------|
|---------7-9-10---|-----10---9---7------|
|------------------|---------------------|
|------------------|---------------------|
|------------------|---------------------|


  Dm6
      PM  PM|    PM|        PM  PM|       PM|
   E  E E E E E  E E    E   E E E E E     E E
|--------------------|------------------------|
|--------------------|------------------------|
|--4----4-----4------|--4-----4-----4---------|
|--3----3-----3------|--3-----3-----3---------|
|--5----5-----5------|--5-----5-----5---------|
|-----0---0-0----0-0-|------0---0-0-------0-0-|
|
| +Q    Q   E E  E E   +E   Q   Q   Q.
|--------------------|------------------------|
|------------------8-|-(8)--------------------|
|-(7)-------7-9-10---|-----10---9---9b10======|
|--------------------|------------------------|
|--------------------|------------------------|
|--------------------|------------------------|


  Dm+5
       PM  PM|    PM|        PM  PM|    PM|
   E   E E E E E  E E    E   E E E E E  E E
|---------------------|---------------------|
|---------------------|---------------------|
|--3-----3-----3------|--3-----3-----3------|
|--3-----3-----3------|--3-----3-----3------|
|--5-----5-----5------|--5-----5-----5------|
|------0---0-0----0-0-|------0---0-0----0-0-|
|
|  ~~~~
| +Q     Q   E E  E E   +E   Q   Q   Q.
|---------------------|---------------------|
|-------------------8-|-(8)-----------------|
|-(9)r-------7-9-10---|-----10---9---7------|
|---------------------|---------------------|
|---------------------|---------------------|
|---------------------|---------------------|


    Dm6
         PM       PM--|         PM--|
     E   E    E   E    E   E    E   E
||----------------------------------------||
||o--------------------------------------o||
||---4--------4------------4--------------||
||---3--------3------------3--------------||
||o--5--------5------------5-------------o||
||-------0--------0----0--------0---0-----||
|
|    T        T        T        T
|    S S S S  S S S S  S S S S  S S S S
||----------------------------------------||
||o--------------------------------------o||
||--12p4h5p4-12p4h5p4-12p4h5p4-12p4h5p4---||
||----------------------------------------||
||o--------------------------------------o||
||----------------------------------------||


  Dm7
    PM  PM|      PM|          PM   PM|     PM|
  E E E E  E  E  E  E     E   E E  E E  E  E E
|---------------------|------------------------|
|---------------------|------------------------|
|-5---5-------5-------|---5-----5-------5------|
|-3---3-------3-------|---3-----3-------3------|
|-5---5-------5-------|---5-----5-------5------|
|---0---0--0-----0--0-|-------0----0-0-----0-0-|
|
| H        E  E  E  E    +E   Q    Q    Q.
|---------------------|------------------------|
|-------------------8-|--(8)-------------------|
|----------7--9-10----|------10----9----7------|
|---------------------|------------------------|
|---------------------|------------------------|
|---------------------|------------------------|
|
| Gtr IV
| H        E  E  E  E    +E   Q    Q    Q.
|---------------------|------------------------|
|------------------11-|-(11)-------------------|
|---------10-12-14----|------14---12---10------|
|---------------------|------------------------|
|---------------------|------------------------|
|---------------------|------------------------|


  Dm6
       PM  PM|      PM|          PM   PM|        PM|
    E  E E E  E  E  E  E     E   E E  E E  E     E E
|------------------------|---------------------------|
|------------------------|---------------------------|
|---4----4-------4-------|---4-----4-------4---------|
|---3----3-------3-------|---3-----3-------3---------|
|---5----5-------5-------|---5-----5-------5---------|
|------0---0--0-----0--0-|-------0----0-0--------0-0-|
|
|  +Q    Q    E  E  E  E    +E   Q    Q    Q.
|------------------------|---------------------------|
|----------------------8-|--(8)----------------------|
|--(7)--------7--9-10----|------10----9----9b10======|
|------------------------|---------------------------|
|------------------------|---------------------------|
|------------------------|---------------------------|
|
|  +Q    Q    E  E  E  E    +E   Q    Q    Q.
|------------------------|---------------------------|
|---------------------11-|-(11)----------------------|
|-(10)-------10-12-14----|------14---12---12b14======|
|------------------------|---------------------------|
|------------------------|---------------------------|
|------------------------|---------------------------|


  Dm+5
        PM  PM|      PM|          PM   PM---|     PM|
    E   E E E  E  E  E  E     E   E E  E    E  E  E E
|-------------------------|---------------------------|
|-------------------------|---------------------------|
|---3-----3-------3-------|---3-----3----------3------|
|---3-----3-------3-------|---3-----3----------3------|
|---5-----5-------5-------|---5-----5----------5------|
|-------0---0--0-----0--0-|-------0----0----0-----0-0-|
|
|   ~~~~~
|  +Q     Q    E  E  E  E    +E   Q    Q       Q.
|-------------------------|---------------------------|
|-----------------------8-|--(8)-10---10b11----8------|
|--(9)r--------7--9-10----|---------------------------|
|-------------------------|---------------------------|
|-------------------------|---------------------------|
|-------------------------|---------------------------|
|
|   ~~~~~
|  +Q     Q    E  E  E  E    +E   Q    Q       Q.
|-------------------------|---------------------------|
|----------------------11-|-(11)-13---13b15---11------|
|-(12)r-------10-12-14----|---------------------------|
|-------------------------|---------------------------|
|-------------------------|---------------------------|
|-------------------------|---------------------------|


  Dm6
        PM        PM|           PM----|           PM        PM|      PM|
   E    E   E     E   E     E   E     E     E     E   E     E   E  E E E
|---------------------------------------|--------------------------------|
|---------------------------------------|--------------------------------|
|--4--------4---------------4-----------|---4---------4------------4-----|
|--3--------3---------------3-----------|---3---------3------------3-----|
|--5--------5---------------5-----------|---5---------5------------5-----|
|-------0---------0---0---------0-----0-|---------0---------0---0----0-0-|
|
|  Q       +Q        +Q        +Q          +Q        +Q        +H
|---------------------------------------|--------------------------------|
|-10b11r==(10)b11r==(10)b11r==(10)b11r==|=(10)b11r==(10)b11r==(10)-------|
|---------------------------------------|--------------------------------|
|---------------------------------------|--------------------------------|
|---------------------------------------|--------------------------------|
|---------------------------------------|--------------------------------|
|
|  Q       +Q        +Q        +Q          +Q        +Q        +H
|---------------------------------------|--------------------------------|
|-13b15r==(13)b15r==(13)b15r==(13)b15r==|=(13)b15r==(13)b15r==(13)-------|
|---------------------------------------|--------------------------------|
|---------------------------------------|--------------------------------|
|---------------------------------------|--------------------------------|
|---------------------------------------|--------------------------------|


 Outro
  Dm7
    PM  PM|      PM|          PM   PM|     PM|
  E E E E  E  E  E  E     E   E E  E E  E  E E
|---------------------|------------------------|
|---------------------|------------------------|
|-5---5-------5-------|---5-----5-------5------|
|-3---3-------3-------|---3-----3-------3------|
|-5---5-------5-------|---5-----5-------5------|
|---0---0--0-----0--0-|-------0----0-0-----0-0-|
|
| H        E  E  E  E    +E   Q    Q    Q.
|---------------------|------------------------|
|-------------------8-|--(8)-------------------|
|----------7--9-10----|------10----9----7------|
|---------------------|------------------------|
|---------------------|------------------------|
|---------------------|------------------------|
|
| H        E  E  E  E    +E   Q    Q    Q.
|---------------------|------------------------|
|------------------11-|-(11)-------------------|
|---------10-12-14----|------14---12---10------|
|---------------------|------------------------|
|---------------------|------------------------|
|---------------------|------------------------|


  Dm6
       PM  PM|      PM|          PM   PM|        PM|
    E  E E E  E  E  E  E     E   E E  E E  E     E E
|------------------------|---------------------------|
|------------------------|---------------------------|
|---4----4-------4-------|---4-----4-------4---------|
|---3----3-------3-------|---3-----3-------3---------|
|---5----5-------5-------|---5-----5-------5---------|
|------0---0--0-----0--0-|-------0----0-0--------0-0-|
|
|  +Q    Q    E  E  E  E    +E   Q    Q    Q.
|------------------------|---------------------------|
|----------------------8-|--(8)----------------------|
|--(7)--------7--9-10----|------10----9----9b10======|
|------------------------|---------------------------|
|------------------------|---------------------------|
|------------------------|---------------------------|
|
|  +Q    Q    E  E  E  E    +E   Q    Q    Q.
|------------------------|---------------------------|
|---------------------11-|-(11)----------------------|
|-(10)-------10-12-14----|------14---12---12b14======|
|------------------------|---------------------------|
|------------------------|---------------------------|
|------------------------|---------------------------|


        PM  PM|      PM|          PM   PM|     PM|
    E   E E E  E  E  E  E     E   E E  E E  E  E E
|-------------------------|------------------------|
|-------------------------|------------------------|
|---3-----3-------3-------|---3-----3-------3------|
|---3-----3-------3-------|---3-----3-------3------|
|---5-----5-------5-------|---5-----5-------5------|
|-------0---0--0-----0--0-|-------0----0-0-----0-0-|
|
|   ~~~~~
|  +Q     Q    E  E  E  E    +E   Q    Q    Q.
|-------------------------|------------------------|
|-----------------------8-|--(8)-------------------|
|--(9)r--------7--9-10----|------10----9----7------|
|-------------------------|------------------------|
|-------------------------|------------------------|
|-------------------------|------------------------|
|
|   ~~~~~
|  +Q     Q    E  E  E  E    +E   Q    Q    Q.
|-------------------------|------------------------|
|----------------------11-|-(11)-------------------|
|-(12)r-------10-12-14----|------14---12---10------|
|-------------------------|------------------------|
|-------------------------|------------------------|
|-------------------------|------------------------|


         PM       PM--|         PM--|
     E   E    E   E    E   E    E   E
||----------------------------------------||
||o--------------------------------------o||
||---4--------4------------4--------------||
||---3--------3------------3--------------||
||o--5--------5------------5-------------o||
||-------0--------0----0--------0---0-----||
|
|    T        T        T        T
|    S S S S  S S S S  S S S S  S S S S
||----------------------------------------||
||o--------------------------------------o||
||--12p4h5p4-12p4h5p4-12p4h5p4-12p4h5p4---||
||----------------------------------------||
||o--------------------------------------o||
||----------------------------------------||
|
|    T        T        T        T
|    S S S S  S S S S  S S S S  S S S S
||----------------------------------------||
||o--------------------------------------o||
||--16p7h9p7-16p7h9p7-16p7h9p7-16p7h9p7---||
||----------------------------------------||
||o--------------------------------------o||
||----------------------------------------||


  Dm7
    PM  PM|      PM|          PM   PM|     PM|
  E E E E  E  E  E  E     E   E E  E E  E  E E
|---------------------|------------------------|
|---------------------|------------------------|
|-5---5-------5-------|---5-----5-------5------|
|-3---3-------3-------|---3-----3-------3------|
|-5---5-------5-------|---5-----5-------5------|
|---0---0--0-----0--0-|-------0----0-0-----0-0-|
|
| H        E  E  E  E    +E   Q    Q    Q.
|---------------------|------------------------|
|-------------------8-|--(8)-------------------|
|----------7--9-10----|------10----9----7------|
|---------------------|------------------------|
|---------------------|------------------------|
|---------------------|------------------------|
|
| H        E  E  E  E    +E   Q    Q    Q.
|---------------------|------------------------|
|------------------11-|-(11)-------------------|
|---------10-12-14----|------14---12---10------|
|---------------------|------------------------|
|---------------------|------------------------|
|---------------------|------------------------|


  Dm6
       PM  PM|      PM|          PM   PM|        PM|
    E  E E E  E  E  E  E     E   E E  E E  E     E E
|------------------------|---------------------------|
|------------------------|---------------------------|
|---4----4-------4-------|---4-----4-------4---------|
|---3----3-------3-------|---3-----3-------3---------|
|---5----5-------5-------|---5-----5-------5---------|
|------0---0--0-----0--0-|-------0----0-0--------0-0-|
|
|  +Q    Q    E  E  E  E    +E   Q    Q    Q.
|------------------------|---------------------------|
|----------------------8-|--(8)----------------------|
|--(7)--------7--9-10----|------10----9----9b10======|
|------------------------|---------------------------|
|------------------------|---------------------------|
|------------------------|---------------------------|
|
|  +Q    Q    E  E  E  E    +E   Q    Q    Q.
|------------------------|---------------------------|
|---------------------11-|-(11)----------------------|
|-(10)-------10-12-14----|------14---12---12b14======|
|------------------------|---------------------------|
|------------------------|---------------------------|
|------------------------|---------------------------|


  Dm+5
        PM  PM|      PM|          PM   PM---|     PM|
    E   E E E  E  E  E  E     E   E E  E    E  E  E E
|-------------------------|---------------------------|
|-------------------------|---------------------------|
|---3-----3-------3-------|---3-----3----------3------|
|---3-----3-------3-------|---3-----3----------3------|
|---5-----5-------5-------|---5-----5----------5------|
|-------0---0--0-----0--0-|-------0----0----0-----0-0-|
|
|   ~~~~~
|  +Q     Q    E  E  E  E    +E   Q    Q       Q.
|-------------------------|---------------------------|
|-----------------------8-|--(8)-10---10b11----8------|
|--(9)r--------7--9-10----|---------------------------|
|-------------------------|---------------------------|
|-------------------------|---------------------------|
|-------------------------|---------------------------|
|
|   ~~~~~
|  +Q     Q    E  E  E  E    +E   Q    Q       Q.
|-------------------------|---------------------------|
|----------------------11-|-(11)-13---13b15---11------|
|-(12)r-------10-12-14----|---------------------------|
|-------------------------|---------------------------|
|-------------------------|---------------------------|
|-------------------------|---------------------------|


  Dm6
        PM        PM|           PM----|           PM        PM|           PM-|
   E    E   E     E   E     E   E     E     E     E   E     E   E     E   E  E
|---------------------------------------|--------------------------------------|
|---------------------------------------|--------------------------------------|
|--4--------4---------------4-----------|---4---------4---------------4--------|
|--3--------3---------------3-----------|---3---------3---------------3--------|
|--5--------5---------------5-----------|---5---------5---------------5--------|
|-------0---------0---0---------0-----0-|---------0---------0---0---------0--0-|
|
|                                                                         ~~~~
|  Q       +Q        +Q        +Q          +Q        +Q        +Q        +Q
|---------------------------------------|--------------------------------------|
|-10b11r==(10)b11r==(10)b11r==(10)b11r==|=(10)b11r==(10)b11r==(10)b11r==(10)---|
|---------------------------------------|--------------------------------------|
|---------------------------------------|--------------------------------------|
|---------------------------------------|--------------------------------------|
|---------------------------------------|--------------------------------------|
|
|                                                                         ~~~~
|  Q       +Q        +Q        +Q          +Q        +Q        +Q        +Q
|---------------------------------------|--------------------------------------|
|-13b15r==(13)b15r==(13)b15r==(13)b15r==|=(13)b15r==(13)b15r==(13)b15r==(13)---|
|---------------------------------------|--------------------------------------|
|---------------------------------------|--------------------------------------|
|---------------------------------------|--------------------------------------|
|---------------------------------------|--------------------------------------|


  PM------------------------------------------------------------------|
  Q  S S S S Q  Q    S S S S S S S S Q  S S S S   Q  Q  S S S S S S S S
|------------------|----------------------------|------------------------|
|------------------|----------------------------|------------------------|
|------------------|----------------------------|------------------------|
|------------------|----------------------------|------------------------|
|------------------|----------------------------|------------------------|
|-0--0-0-0-0-0--0--|-0-0-0-0-0-0-0-0-0--0-0-0-0-|-0--0--0-0-0-0-0-0-0-0--|


  PM------------------------------------------------------------------|
  Q  S S S S Q  Q    S S S S S S S S Q  S S S S   Q  Q  S S S S S S S S
|------------------|----------------------------|------------------------*|
|------------------|----------------------------|------------------------*|
|------------------|----------------------------|------------------------*|
|------------------|----------------------------|------------------------*|
|------------------|----------------------------|------------------------*|
|-0--0-0-0-0-0--0--|-0-0-0-0-0-0-0-0-0--0-0-0-0-|-0--0--0-0-0-0-0-0-0-0--*|



Duration Legend
---------------
W - whole; H - half; Q - quarter; E - 8th; S - 16th; T - 32nd; X - 64th; a - acciaccatura
+ - note tied to previous; . - note dotted; .. - note double dotted
Uncapitalized letters represent notes that are staccato (1/2 duration)
Irregular groupings are notated above the duration line
Duration letters will always appear directly above the note/fret number it represents the
duration for.  Duration letters with no fret number below them represent rests.  Multi-
bar rests are notated in the form Wxn, where n is the number of bars to rest for.  Low
melody durations appear below the staff

Tablature Legend
----------------
 h   - hammer-on
 p   - pull-off
 b   - bend
 pb  - pre-bend
 r   - bend release (if no number after the r, then release immediately)
 /\  - slide into or out of (from/to "nowhere")
 s   - legato slide
 S   - shift slide
 - natural harmonic
[n]  - artificial harmonic
n(n) - tapped harmonic
 ~   - vibrato
 tr  - trill
 T   - tap
 TP  - trem. picking
 PM  - palm muting
\n/  - tremolo bar dip; n = amount to dip
 \n  - tremolo bar down
 n/  - tremolo bar up
/n\  - tremolo bar inverted dip
 =   - hold bend; also acts as connecting device for hammers/pulls
 <> - volume swell (louder/softer)
 x   - on rhythm slash represents muted slash
 o   - on rhythm slash represents single note slash

Misc Legend
-----------
 |  - bar
||  - double bar
||o - repeat start
o|| - repeat end
*|  - double bar (ending)
 :  - bar (freetime)
 $  - Segno
 &  - Coda
Tempo markers -  = BPM(8/16=s8/s16), where s8 = swing 8ths, s16 = swing 16ths

Добавлено: 30.07.2013
Другие материалы по этой песне:

Страница создана 25.02.2012
http://primanota.ru/annihilator/epic-of-war-chords.htm
Привет, Гость.
Предлагаем пройти революционный курс по гитаре.
Подарок от PrimaNota.Ru, забирай!