PrimaNota.ru - самый крупный в мире бесплатный архив песенных текстов, аккордов, табулатур и нот


Annihilator - Double Dare - текст песни, таба, видео

Регистрация Запомнить меня
Войти через:  Facebook Google Twitter Vk Yandex Mail.ru

Annihilator - Double Dare - текст песни, таба, видео

Печатать
Просмотров: 169
Уроки эстрадного вокала в Санкт-Петербурге
Авторы музыки: Jeff Waters
Авторы текста: Big John Bates, Jeff Waters
Annihilator - Double Dare

tabbed by ol753
www.annihilatormetal.com
ol753_357lo@yahoo.co.uk

Tuning - E A D G B E


Both Gtrs
|----------|
|----------|
|----------|
|----------|
|----------|
|-4-3-1----|


Gtr 1
play twice
    PM    PM    PM    PM|         PM    PM    PM    PM|
|----------------------------------------------------------------|
|----------------------------------------------------------------|
|----------------------------------------------------------------|
|----------------------------------------------------------------|
|----------------------------------------------------------------|
|-0-0-3p0-0-3p0-0-3p0-0-0-4-3-1-0-0-3p0-0-3p0-0-3p0-0-0-4-3-1----|


    PM    PM    PM    PM|         PM    PM    PM    PM|
|----------------------------------------------------------------|
|----------------------------------------------------------------|
|----------------------------------------------------------------|
|----------------------------------------------------------------|
|----------------------------------------------------------------|
|-0-0-3p0-0-3p0-0-3p0-0-0-4-3-1-0-0-3p0-0-3p0-0-3p0-0-0-4-3-1----|


Gtr 2
    PM    PM    PM    PM|         PM    PM    PM    PM|
|----------------------------------------------------------------|
|----------------------------------------------------------------|
|----------------------------------------------------------------|
|----------------------------------------------------------------|
|----------------------------------------------------------------|
|-0-0-3p0-0-3p0-0-3p0-0-0-4-3-1-0-0-3p0-0-3p0-0-3p0-0-0-4-3-1----|


    PM    PM    PM    PM|         PM    PM    PM    PM|
|----------------------------------------------------------------|
|----------------------------------------------------------------|
|----------------------------------------------------------------|
|----------------------------------------------------------------|
|----------------------------------------------------------------|
|-0-0-3p0-0-3p0-0-3p0-0-0-4-3-1-0-0-3p0-0-3p0-0-3p0-0-0-7-6-4----|


    PM    PM    PM    PM|         PM    PM    PM    PM|
|----------------------------------------------------------------|
|----------------------------------------------------------------|
|----------------------------------------------------------------|
|----------------------------------------------------------------|
|----------------------------------------------------------------|
|-0-0-3p0-0-3p0-0-3p0-0-0-7-6-4-0-0-3p0-0-3p0-0-3p0-0-0-7-6-4----|


    PM    PM    PM    PM|         PM    PM    PM    PM|
|----------------------------------------------------------------|
|----------------------------------------------------------------|
|----------------------------------------------------------------|
|----------------------------------------------------------------|
|----------------------------------------------------------------|
|-0-0-3p0-0-3p0-0-3p0-0-0-7-6-4-0-0-3p0-0-3p0-0-3p0-0-0-7-6-4----|


Gtr 1
play twice
  PM----|   PM    PM    PM      PM----|   PM    PM    PM    PM
|------------------------------------------------------------------|
|------------------------------------------------------------------|
|------------------------------------------------------------------|
|---------9---7S8-----------------------6---4S5--------------------|
|-----8---7---5S6---8S7---5S6-2-----5---4---2S3---5S4---4S3---2----|
|-0-0-6-0---0-----0-6S5-0-3S4-0-0-0-3-0---0-----0-3S2-0-2S1-0-0----|


Gtr 2
play 4 times
  PM------------------------|
|--------------------------------|
|--------------------------------|
|--------------------------------|
|--------------------------------|
|--------------------------------|
|-0--0-0-0--0-0-0--0-0-0--0-0----|


Gtr 1, Gtr 2 accentuates parts
  PM----|   PM    PM    PM      PM----|   PM    PM    PM    PM
|------------------------------------------------------------------|
|------------------------------------------------------------------|
|------------------------------------------------------------------|
|---------9---7S8-----------------------6---4S5--------------------|
|-----8---7---5S6---8S7---5S6-2-----5---4---2S3---5S4---4S3---2----|
|-0-0-6-0---0-----0-6S5-0-3S4-0-0-0-3-0---0-----0-3S2-0-2S1-0-0----|


  PM----|   PM    PM    PM      PM----|   PM    PM----------|
|-----------------------------------------------------------------|
|-----------------------------------------------------------------|
|-----------------------------------------------------------------|
|---------9---7S8-----------------------6---4S5-------------------|
|-----8---7---5S6---8S7---5S6-2-----5---4---2S3-------------------|
|-0-0-6-0---0-----0-6S5-0-3S4-0-0-0-3-0---0-----\-\-\-\-\-\-\-----|


Both Gtrs
play 4 times
  PM----|   PM    PM    PM      PM----|   PM    PM    PM    PM
|------------------------------------------------------------------|
|------------------------------------------------------------------|
|------------------------------------------------------------------|
|---------9---7S8-----------------------6---4S5--------------------|
|-----8---7---5S6---8S7---5S6-2-----5---4---2S3---5S4---4S3---2----|
|-0-0-6-0---0-----0-6S5-0-3S4-0-0-0-3-0---0-----0-3S2-0-2S1-0-0----|


Both Gtrs
|----------|
|----------|
|----------|
|----------|
|----------|
|-4-3-1----|


Gtr 1
play twice
    PM    PM    PM    PM|         PM    PM    PM    PM|
|----------------------------------------------------------------|
|----------------------------------------------------------------|
|----------------------------------------------------------------|
|----------------------------------------------------------------|
|----------------------------------------------------------------|
|-0-0-3p0-0-3p0-0-3p0-0-0-4-3-1-0-0-3p0-0-3p0-0-3p0-0-0-4-3-1----|


    PM    PM    PM    PM|         PM    PM    PM    PM|
|----------------------------------------------------------------|
|----------------------------------------------------------------|
|----------------------------------------------------------------|
|----------------------------------------------------------------|
|----------------------------------------------------------------|
|-0-0-3p0-0-3p0-0-3p0-0-0-4-3-1-0-0-3p0-0-3p0-0-3p0-0-0-4-3-1----|


Gtr 2
    PM    PM    PM    PM|         PM    PM    PM    PM|
|----------------------------------------------------------------|
|----------------------------------------------------------------|
|----------------------------------------------------------------|
|----------------------------------------------------------------|
|----------------------------------------------------------------|
|-0-0-3p0-0-3p0-0-3p0-0-0-4-3-1-0-0-3p0-0-3p0-0-3p0-0-0-4-3-1----|


    PM    PM    PM    PM|         PM    PM    PM    PM|
|----------------------------------------------------------------|
|----------------------------------------------------------------|
|----------------------------------------------------------------|
|----------------------------------------------------------------|
|----------------------------------------------------------------|
|-0-0-3p0-0-3p0-0-3p0-0-0-4-3-1-0-0-3p0-0-3p0-0-3p0-0-0-7-6-4----|


    PM    PM    PM    PM|         PM    PM    PM    PM|
|----------------------------------------------------------------|
|----------------------------------------------------------------|
|----------------------------------------------------------------|
|----------------------------------------------------------------|
|----------------------------------------------------------------|
|-0-0-3p0-0-3p0-0-3p0-0-0-7-6-4-0-0-3p0-0-3p0-0-3p0-0-0-7-6-4----|


    PM    PM    PM    PM|         PM    PM    PM    PM|
|----------------------------------------------------------------|
|----------------------------------------------------------------|
|----------------------------------------------------------------|
|----------------------------------------------------------------|
|----------------------------------------------------------------|
|-0-0-3p0-0-3p0-0-3p0-0-0-7-6-4-0-0-3p0-0-3p0-0-3p0-0-0-7-6-4----|


Gtr 1, Gtr 2 accentuates parts
  PM----|   PM    PM    PM      PM----|   PM    PM    PM    PM
|------------------------------------------------------------------|
|------------------------------------------------------------------|
|------------------------------------------------------------------|
|---------9---7S8-----------------------6---4S5--------------------|
|-----8---7---5S6---8S7---5S6-2-----5---4---2S3---5S4---4S3---2----|
|-0-0-6-0---0-----0-6S5-0-3S4-0-0-0-3-0---0-----0-3S2-0-2S1-0-0----|


  PM----|   PM    PM    PM      PM----|   PM    PM----------|
|-----------------------------------------------------------------|
|-----------------------------------------------------------------|
|-----------------------------------------------------------------|
|---------9---7S8-----------------------6---4S5-------------------|
|-----8---7---5S6---8S7---5S6-2-----5---4---2S3-------------------|
|-0-0-6-0---0-----0-6S5-0-3S4-0-0-0-3-0---0-----\-\-\-\-\-\-\-----|


Both Gtrs
play twice
  PM----|   PM    PM    PM      PM----|   PM    PM    PM    PM
|------------------------------------------------------------------|
|------------------------------------------------------------------|
|------------------------------------------------------------------|
|---------9---7S8-----------------------6---4S5--------------------|
|-----8---7---5S6---8S7---5S6-2-----5---4---2S3---5S4---4S3---2----|
|-0-0-6-0---0-----0-6S5-0-3S4-0-0-0-3-0---0-----0-3S2-0-2S1-0-0----|


Gtr 1
|------|
|------|
|------|
|-2----|
|-0----|
|------|


Gtr 2
play 3 times, just pick scrapes 4th time
|------------------------|
|------------------------|
|-----12-12-------9-9----|
|-9-9-10-10-12-12-7-7----|
|-7-7--8--8-10-10-5-5----|
|-5-5--------8--8--------|


Both Gtrs
play 4 times
|------------------------|
|------------------------|
|-----12-12-------9-9----|
|-9-9-10-10-12-12-7-7----|
|-7-7--8--8-10-10-5-5----|
|-5-5--------8--8--------|


Gtr 1
|----------------------------------------------------------------------------------|
|----------------------------------------------------------------------------------|
|----------------------------------------------------------------------------------|
|-----------8-8-10-10---------8-8-10-10-----------11-11-13-13-------------14-14----|
|-10-10-6-6-6-6--8--8-8-8-6-6-6-6--8--8-13-13-9-9--9--9-11-11-16-16-12-12-12-12----|
|--8--8-4-4-----------6-6-4-4-----------11-11-7-7-------------14-14-10-10-------\--|


Gtr 2
|----------------------------------------------------------------------------------------|
|----------------------------------------------------------------------------------------|
|----------------------------------------------------------------------------------------|
|-----------8-8-10-10-----------11-11-13-13-------------14-14-16-16-------------17-17----|
|-10-10-6-6-6-6--8--8-13-13-9-9--9--9-11-11-16-16-12-12-12-12-14-14-19-19-15-15-15-15----|
|--8--8-4-4-----------11-11-7-7-------------14-14-10-10-------------17-17-13-13-------\--|


Both Gtrs
play twice
  PM--------------------|
|--------------------------------|
|--------------------------------|
|--------------------------------|
|--------------------------------|
|-------------------------7S8----|
|-6-5-3-0-5-6-8-0-9-8-6-0-5S6----|


3rd time
  PM----------------------------|
|----------------------------------------|
|----------------------------------------|
|----------------------------------------|
|----------------------------------------|
|---------------------------------7------|
|-6-5-3-0-5-6-8--9--8--6-8-9-8--0---0----|


play above twice


Both Gtrs
play 4 times
    PM|   PM    PM|   PM|   PM|   PM    PM|
|-------------------------------------------------------|
|-------------------------------------------12-12-12----|
|-------------------------------------------10-10-10----|
|-------------------------------------------------------|
|-1-----3---6-5-----3-----1-----3---6-5-----------------|
|-3-0-0-1-0-4-3-0-0-1-0-0-3-0-0-1-0-4-3-0-0-------------|


Both Gtrs
|--0--0--0--0--0--0--0--0--0--0--0--0-0-0-0-0-0-0-0-0-0-0-0-0-0-0-0-0-0-0-0-0-0-0-0-0--|
|-12-12-12-12-12-12-12-12-12-12-12-12-9-9-9-9-9-9-9-9-9-9-9-9-6-6-6-6-6-6-6-6-6-6-6-6--|
|-10-10-10-10-10-10-10-10-10-10-10-10-7-7-7-7-7-7-7-7-7-7-7-7-4-4-4-4-4-4-4-4-4-4-4-4--|
|--------------------------------------------------------------------------------------|
|--------------------------------------------------------------------------------------|
|--------------------------------------------------------------------------------------|


|-0-0-0-0-0-0-0-0-0-0-0-0----|
|-3-3-3-3-3-3-3-3-3-3-3-3----|
|-1-1-1-1-1-1-1-1-1-1-1-1----|
|----------------------------|
|----------------------------|
|----------------------------|


Gtr 1
|--0--0--0--0--0--0--0--0--0--0--0--0-0-0-0-0-0-0-0-0-0-0-0-0-0-0-0-0-0-0-0-0-0-0-0-0--|
|-12-12-12-12-12-12-12-12-12-12-12-12-9-9-9-9-9-9-9-9-9-9-9-9-6-6-6-6-6-6-6-6-6-6-6-6--|
|-10-10-10-10-10-10-10-10-10-10-10-10-7-7-7-7-7-7-7-7-7-7-7-7-4-4-4-4-4-4-4-4-4-4-4-4--|
|--------------------------------------------------------------------------------------|
|--------------------------------------------------------------------------------------|
|--------------------------------------------------------------------------------------|


Gtr 2
|--0--0--0--0--0--0--0--0--0--0--0--0--0--0--0--0--0--0--0--0--0--0--0--0-0-0-0-0-0-0-0-0-0-0-0-0--|
|-15-15-15-15-15-15-15-15-15-15-15-15-12-12-12-12-12-12-12-12-12-12-12-12-9-9-9-9-9-9-9-9-9-9-9-9--|
|-13-13-13-13-13-13-13-13-13-13-13-13-10-10-10-10-10-10-10-10-10-10-10-10-7-7-7-7-7-7-7-7-7-7-7-7--|
|--------------------------------------------------------------------------------------------------|
|--------------------------------------------------------------------------------------------------|
|--------------------------------------------------------------------------------------------------|


|----------------|
|----------------|
|-9---7--10-9----|
|----------------|
|-7---5---8-7----|
|----------------|


Both Gtrs
play twice
|-------|
|-------|
|-11----|
|--8----|
|--6----|
|-------|


Gtr 3
play 4 times
|-------------------|
|--------0----------|
|-----11----11------|
|---8----------8----|
|-6-----------------|
|-------------------|


Both Gtrs
|----------------------------------------------------------------------|
|--------0----------------0----------------------------------7---------|
|-----11----11---------11----11-----------7----------------7---7-------|
|---8----------8-----8----------8------11----11---------11-------11----|
|-6--------------6-6-----------------9----------9-----9----------------|
|----------------------------------7--------------7-7------------------|


|--------------------------------------------------------------|
|-------0--------------0------------------------------2--------|
|------------------------------------2--------------2---2------|
|-----8----8---------8----8--------6----6---------6-------6----|
|---8--------8-----8--------8----4--------4-----4--------------|
|-6------------6-6-------------2------------2-2----------------|


Both Gtrs
|-----------------------------------------------------------------------|
|--------------------------------------------------------------4--------|
|---------9-------------------9---------------4--------------4---4------|
|------13-------13---------13----13---------8----8---------8-------8----|
|---11-------11----11---11----------11----6--------6-----6--------------|
|-9-------------------9-----------------4------------4-4----------------|


|--------------------------------------------------------------|
|-------2--------------2------------------------------2--------|
|-----4----4---------4----4----------2--------------2---2------|
|---4--------4-----4--------4------6------6-------6-------6----|
|-2------------2-2---------------4------4---4---4--------------|
|------------------------------2--------------2----------------|


Gtr 3
|-------------------------------------------|
|----------------4b5--4--5------------------|
|-4h6----------6-----------6S4--------------|
|-----------/6--------------------4--4h6----|
|-------------------------------------------|
|-------------------------------------------|


|-----------------------------------------|
|---------------2-2b3r=2------------------|
|-/4----------4-----------4--4S2---1------|
|----------/4------------------------4----|
|-----------------------------------------|
|-----------------------------------------|


Both Gtrs
  PM|               PM|
|------------------------------|
|-----0-0---------------0-0----|
|-----6-6---------------8-8----|
|-----7-7---------------6-6----|
|-0-0-0-0-----------4-4-4-4----|
|------------------------------|


Gtr 3
|-------------------------------------0--------------0-----------|
|-------0--------------0-----------------0--------------0--------|
|-----6----6---------7----6---------8------8-------8------8------|
|---7--------7-----6--------7-----6----------6---6----------6----|
|-0------------0-0------------0-4--------------4-----------------|
|----------------------------------------------------------------|


Gtr 4
play 4 times
|-0-0-0-0-0-0-0-0----|
|-5-5-5-4-4-4-5-5----|
|--------------------|
|--------------------|
|--------------------|
|--------------------|


Both Gtrs
play 3 times
    PM|   PM|   PM  PM|   PM|   PM
|------------------------------------|
|------------------------------------|
|------------------------------------|
|-2-----2-----2---4-----4-----4------|
|-0-0-0-0-0-0-0-0-2-2-2-2-2-2-2------|
|-------------------------------4----|


      PM-------|     PM-------|     PM-------|     PM     PM
|--------------------------------------------------------------|
|--------------------------------------------------------------|
|--------------------------------------------------------------|
|----------------------------------------------2p1----2p1------|
|-2h4-4-4-4--4-4-2h4-4-4-4--4-4-2h4-4-4-4--4-4-----4------4----|
|--------------------------------------------------------------|


Gtr 3
play 12 times
|-0-0-0-0-0-0-0-0----|
|-5-5-5-4-4-4-5-5----|
|--------------------|
|--------------------|
|--------------------|
|--------------------|


Both Gtrs, Gtr 3 (to be added)
|-----------------|
|-----------------|
|-----------------|
|-2---------------|
|-0----------9\---|
|------------7\---|


Both Gtrs
play twice
  PM--------------------|
|--------------------------------|
|--------------------------------|
|--------------------------------|
|--------------------------------|
|-------------------------7S8----|
|-6-5-3-0-5-6-8-0-9-8-6-0-5S6----|


3rd time
  PM----------------------------|
|----------------------------------------|
|----------------------------------------|
|----------------------------------------|
|----------------------------------------|
|---------------------------------7------|
|-6-5-3-0-5-6-8--9--8--6-8-9-8--0---0----|


Both Gtrs
|------|
|------|
|------|
|-2----|
|-0----|
|------|



Both Gtrs
|----------|
|----------|
|----------|
|----------|
|----------|
|-4-3-1----|


Gtr 1
play twice
    PM    PM    PM    PM|         PM    PM    PM    PM|
|----------------------------------------------------------------|
|----------------------------------------------------------------|
|----------------------------------------------------------------|
|----------------------------------------------------------------|
|----------------------------------------------------------------|
|-0-0-3p0-0-3p0-0-3p0-0-0-4-3-1-0-0-3p0-0-3p0-0-3p0-0-0-4-3-1----|


    PM    PM    PM    PM|         PM    PM    PM    PM|
|----------------------------------------------------------------|
|----------------------------------------------------------------|
|----------------------------------------------------------------|
|----------------------------------------------------------------|
|----------------------------------------------------------------|
|-0-0-3p0-0-3p0-0-3p0-0-0-4-3-1-0-0-3p0-0-3p0-0-3p0-0-0-4-3-1----|


Gtr 2
    PM    PM    PM    PM|         PM    PM    PM    PM|
|----------------------------------------------------------------|
|----------------------------------------------------------------|
|----------------------------------------------------------------|
|----------------------------------------------------------------|
|----------------------------------------------------------------|
|-0-0-3p0-0-3p0-0-3p0-0-0-4-3-1-0-0-3p0-0-3p0-0-3p0-0-0-4-3-1----|


    PM    PM    PM    PM|         PM    PM    PM    PM|
|----------------------------------------------------------------|
|----------------------------------------------------------------|
|----------------------------------------------------------------|
|----------------------------------------------------------------|
|----------------------------------------------------------------|
|-0-0-3p0-0-3p0-0-3p0-0-0-4-3-1-0-0-3p0-0-3p0-0-3p0-0-0-7-6-4----|


    PM    PM    PM    PM|         PM    PM    PM    PM|
|----------------------------------------------------------------|
|----------------------------------------------------------------|
|----------------------------------------------------------------|
|----------------------------------------------------------------|
|----------------------------------------------------------------|
|-0-0-3p0-0-3p0-0-3p0-0-0-7-6-4-0-0-3p0-0-3p0-0-3p0-0-0-7-6-4----|


    PM    PM    PM    PM|         PM    PM    PM    PM|
|----------------------------------------------------------------|
|----------------------------------------------------------------|
|----------------------------------------------------------------|
|----------------------------------------------------------------|
|----------------------------------------------------------------|
|-0-0-3p0-0-3p0-0-3p0-0-0-7-6-4-0-0-3p0-0-3p0-0-3p0-0-0-7-6-4----|


Both Gtrs
play 3 times
  PM----|   PM    PM    PM      PM----|   PM    PM    PM    PM
|------------------------------------------------------------------|
|------------------------------------------------------------------|
|------------------------------------------------------------------|
|---------9---7S8-----------------------6---4S5--------------------|
|-----8---7---5S6---8S7---5S6-2-----5---4---2S3---5S4---4S3---2----|
|-0-0-6-0---0-----0-6S5-0-3S4-0-0-0-3-0---0-----0-3S2-0-2S1-0-0----|


4th time
  PM----|   PM    PM    PM      PM----|   PM
|-------------------------------------------------------------|
|-------------------------------------------------------------|
|-------------------------------------------------------------|
|---------9---7S8-----------------------6---4S5---------------|
|-----8---7---5S6---8S7---5S6-2-----5---4---2S3-5--4--3--5----|
|-0-0-6-0---0-----0-6S5-0-3S4-0-0-0-3-0---0-----3--2--1--3----|


Both Gtrs
play twice
  PM----|   PM    PM    PM      PM----|   PM    PM    PM    PM
|------------------------------------------------------------------|
|------------------------------------------------------------------|
|------------------------------------------------------------------|
|---------9---7S8-----------------------6---4S5--------------------|
|-----8---7---5S6---8S7---5S6-2-----5---4---2S3---5S4---4S3---2----|
|-0-0-6-0---0-----0-6S5-0-3S4-0-0-0-3-0---0-----0-3S2-0-2S1-0-0----|


Gtr 1
play twice, Gtr 2 accentuates parts
  PM----|   PM    PM    PM      PM----|   PM    PM    PM    PM
|------------------------------------------------------------------|
|------------------------------------------------------------------|
|------------------------------------------------------------------|
|---------9---7S8-----------------------6---4S5--------------------|
|-----8---7---5S6---8S7---5S6-2-----5---4---2S3---5S4---4S3---2----|
|-0-0-6-0---0-----0-6S5-0-3S4-0-0-0-3-0---0-----0-3S2-0-2S1-0-0----|


Gtr 2
play 4 times
  PM------------------------|
|--------------------------------|
|--------------------------------|
|--------------------------------|
|--------------------------------|
|--------------------------------|
|-0--0-0-0--0-0-0--0-0-0--0-0----|


Gtr 1, Gtr 2 accentuates parts
  PM----|   PM    PM    PM      PM----|   PM    PM    PM    PM
|------------------------------------------------------------------|
|------------------------------------------------------------------|
|------------------------------------------------------------------|
|---------9---7S8-----------------------6---4S5--------------------|
|-----8---7---5S6---8S7---5S6-2-----5---4---2S3---5S4---4S3---2----|
|-0-0-6-0---0-----0-6S5-0-3S4-0-0-0-3-0---0-----0-3S2-0-2S1-0-0----|


  PM----|   PM    PM    PM      PM----|   PM    PM----------|
|-----------------------------------------------------------------|
|-----------------------------------------------------------------|
|-----------------------------------------------------------------|
|---------9---7S8-----------------------6---4S5-------------------|
|-----8---7---5S6---8S7---5S6-2-----5---4---2S3-------------------|
|-0-0-6-0---0-----0-6S5-0-3S4-0-0-0-3-0---0-----\-\-\-\-\-\-\-----|


Both Gtrs
plays to fade, Gtr 3 Lead (to be added)
|----------------------------------------------------|
|----------------------------------------------------|
|-0-----------0-----------0-----------0--------------|
|-0-----------0-----------0-----------0--------------|
|----2-----------2-----------2-----------2-----------|
|----0--0-3h5----0--0-3h5----0--0-3h5----0--0-3h5----|


|----------------------------------------------------|
|----------------------------------------------------|
|----------------------------------------------------|
|----------------------------------------------------|
|----2-----------2-----------2-----------2-----------|
|-3--0--0-3h5-3--0--0-3h5-3--0--0-3h5-3--0--0-3h5----|


Tablature Legend
----------------
 h   - hammer-on
 p   - pull-off
 b   - bend
 pb  - pre-bend
 r   - bend release (if no number after the r, then release immediately)
 /\  - slide into or out of (from/to "nowhere")
 s   - legato slide
 S   - shift slide
  - natural harmonic
[n]  - artificial harmonic
n(n) - tapped harmonic
 ~   - vibrato
 tr  - trill
 T   - tap
 TP  - trem. picking
 PM  - palm muting
\n/  - tremolo bar dip; n = amount to dip
 \n  - tremolo bar down
 n/  - tremolo bar up
/n\  - tremolo bar inverted dip
 =   - hold bend; also acts as connecting device for hammers/pulls
 <>  - volume swell (louder/softer)
 x   - on rhythm slash represents muted slash
 o   - on rhythm slash represents single note slash

Misc Legend
-----------
 |  - bar
||  - double bar
||o - repeat start
o|| - repeat end
*|  - double bar (ending)
 :  - bar (freetime)
 $  - Segno
 &  - Coda
Tempo markers -  = BPM(8/16=s8/s16), where s8 = swing 8ths, s16 = swing 16ths
Добавлено: 03.09.2013
Другие материалы по этой песне:
  • Аккорды и текст

Страница создана 02.07.2012
http://primanota.ru/annihilator/double-dare-chords.htm
Привет, Гость.
Предлагаем пройти революционный курс по гитаре.
Подарок от PrimaNota.Ru, забирай!