PrimaNota.ru - самый крупный в мире бесплатный архив песенных текстов, аккордов, табулатур и нот


Annihilator - Dead Wrong - текст песни, таба, видео

Регистрация Запомнить меня
Войти через:  Facebook Google Twitter Vk Yandex Mail.ru

Annihilator - Dead Wrong - текст песни, таба, видео

Печатать
Просмотров: 123
Уроки эстрадного вокала в Санкт-Петербурге
Авторы музыки: Jeff Waters
Авторы текста: Jeff Waters
Annihilator - Dead Wrong

tabbed by ol753
www.annihilatormetal.com
ol753_357lo@yahoo.co.uk

Tuning - E A D G B E


Gtr 1
play 4 times, Gtr 2 joins 3rd time
  PM-|     PM----|      PM
|----------------------------|
|----------------------------|
|----------------------------|
|----------------------------|
|------6S5---------6S5-------|
|-0--0-4S3-0-0---0-4S3--0----|


Both Gtrs
play twice
  PM-|     PM----|      PM
|----------------------------|
|----------------------------|
|----------------------------|
|----------------------------|
|------6S5---------6S5-------|
|-0--0-4S3-0-0---0-4S3--0----|


  PM-|     PM----|      PM
|----------------------------|
|----------------------------|
|----------------------------|
|----------------------------|
|------6S5---------6S5-------|
|-0--0-4S3-0-0---0-4S3--0----|


  PM-|     PM----|      PM
|----------------------------|
|----------------------------|
|----------------------------|
|----------------------------|
|------6S5---------6S5-------|
|-0--0-4S3-0-0---0-4S3--0----|


  PM-|     PM    PM    PM
|---------------------------|
|---------------------------|
|---------------------------|
|---------------------------|
|------6S5---5S4---4S3------|
|-0--0-4S3-0-3S2-0-2S1-0----|


Verse
Both Gtrs
play 3 times
  PM-|     PM----|      PM
|----------------------------|
|----------------------------|
|----------------------------|
|----------------------------|
|------6S5---------6S5-------|
|-0--0-4S3-0-0---0-4S3--0----|

4th time
  PM-|     PM    PM    PM
|---------------------------|
|---------------------------|
|---------------------------|
|---------------------------|
|------6S5---5S4---4S3------|
|-0--0-4S3-0-3S2-0-2S1-0----|


Both Gtrs
play 3 times
  PM-|     PM----|      PM
|----------------------------|
|----------------------------|
|----------------------------|
|----------------------------|
|------6S5---------6S5-------|
|-0--0-4S3-0-0---0-4S3--0----|

4th time
  PM-|     PM    PM    PM
|---------------------------|
|---------------------------|
|---------------------------|
|---------------------------|
|------6S5---5S4---4S3------|
|-0--0-4S3-0-3S2-0-2S1-0----|


Both Gtrs
play twice
  PM-|     PM----|      PM
|----------------------------|
|----------------------------|
|----------------------------|
|----------------------------|
|------6S5---------6S5-------|
|-0--0-4S3-0-0---0-4S3--0----|


  PM-|     PM    PM    PM
|---------------------------|
|---------------------------|
|---------------------------|
|---------------------------|
|------6S5---5S4---4S3------|
|-0--0-4S3-0-3S2-0-2S1-0----|


Both Gtrs
play 3 times
  PM-|     PM----|      PM
|----------------------------|
|----------------------------|
|----------------------------|
|----------------------------|
|------6S5---------6S5-------|
|-0--0-4S3-0-0---0-4S3--0----|

4th time
  PM-|     PM    PM    PM
|---------------------------|
|---------------------------|
|---------------------------|
|---------------------------|
|------6S5---5S4---4S3------|
|-0--0-4S3-0-3S2-0-2S1-0----|


Chorus
Both Gtrs
play twice
  PM----------|
|----------------------------|
|----------------------------|
|----------------------------|
|----------------------------|
|---------------5-2----------|
|-0-4-1-0-4-1-0-----5-4-1----|


Gtr 1
play twice
  PM----------|
|----------------------------|
|----------------------------|
|----------------------------|
|----------------------------|
|---------------5-2----------|
|-0-4-1-0-4-1-0-----5-4-1----|


Gtr 2
play twice
  PM----------|
|----------------------------|
|----------------------------|
|----------------------------|
|----------------------------|
|---------------8-5----------|
|-0-4-1-0-4-1-0-----8-7-4----|


Both Gtrs
play 4 times
|----------------------------|
|----------------------------|
|----------------------------|
|---------------7-4-2--------|
|---6-3---6-3---5-2-0-6-3----|
|-0-4-1-0-4-1-0-------4-1----|


Both Gtrs
play 3 times, Gtr 3 (to be added)
  PM-|     PM----|      PM
|----------------------------|
|----------------------------|
|----------------------------|
|----------------------------|
|------6S5---------6S5-------|
|-0--0-4S3-0-0---0-4S3--0----|


4th time
  PM-|     PM    PM    PM
|---------------------------|
|---------------------------|
|---------------------------|
|---------------------------|
|------6S5---5S4---4S3------|
|-0--0-4S3-0-3S2-0-2S1-0----|


Repeat Verse
Repeat Chorus


Both Gtrs
play 4 times
|----------------------------|
|----------------------------|
|----------------------------|
|---------------7-4-2--------|
|---6-3---6-3---5-2-0-6-3----|
|-0-4-1-0-4-1-0-------4-1----|


Both Gtrs
play 15 times, Gtr 3 Lead (to be added)
  PM-|     PM----|      PM
|----------------------------|
|----------------------------|
|----------------------------|
|----------------------------|
|------6S5---------6S5-------|
|-0--0-4S3-0-0---0-4S3--0----|


16th time
  PM-|     PM    PM    PM
|---------------------------|
|---------------------------|
|---------------------------|
|---------------------------|
|------6S5---5S4---4S3------|
|-0--0-4S3-0-3S2-0-2S1-0----|


Both Gtrs
  PM----------|
|----------------------------|
|----------------------------|
|----------------------------|
|----------------------------|
|---------------5-2----------|
|-0-4-1-0-4-1-0-----5-4-1----|


Gtr 1
  PM----------|
|----------------------------|
|----------------------------|
|----------------------------|
|----------------------------|
|---------------5-2----------|
|-0-4-1-0-4-1-0-----5-4-1----|


Gtr 2
  PM----------|
|----------------------------|
|----------------------------|
|----------------------------|
|----------------------------|
|---------------8-5----------|
|-0-4-1-0-4-1-0-----8-7-4----|


Both Gtrs
play twice
|----------------------------|
|----------------------------|
|----------------------------|
|---------------7-4-2--------|
|---6-3---6-3---5-2-0-6-3----|
|-0-4-1-0-4-1-0-------4-1----|


Both Gtrs
play 3 times
  PM-|     PM----|      PM
|----------------------------|
|----------------------------|
|----------------------------|
|----------------------------|
|------6S5---------6S5-------|
|-0--0-4S3-0-0---0-4S3--0----|

4th time
  PM-|     PM    PM    PM
|---------------------------|
|---------------------------|
|---------------------------|
|---------------------------|
|------6S5---5S4---4S3------|
|-0--0-4S3-0-3S2-0-2S1-0----|


Both Gtrs
play 3 times
  PM-|     PM----|      PM
|----------------------------|
|----------------------------|
|----------------------------|
|----------------------------|
|------6S5---------6S5-------|
|-0--0-4S3-0-0---0-4S3--0----|

4th time
  PM-|     PM    PM    PM
|---------------------------|
|---------------------------|
|---------------------------|
|---------------------------|
|------6S5---5S4---4S3------|
|-0--0-4S3-0-3S2-0-2S1-0----|


Repeat Verse
Repeat Chorus


Both Gtrs
play 4 times
|----------------------------|
|----------------------------|
|----------------------------|
|---------------7-4-2--------|
|---6-3---6-3---5-2-0-6-3----|
|-0-4-1-0-4-1-0-------4-1----|


Repeat Verse


Both Gtrs
plays to fade
  PM-|     PM----|      PM
|----------------------------|
|----------------------------|
|----------------------------|
|----------------------------|
|------6S5---------6S5-------|
|-0--0-4S3-0-0---0-4S3--0----|


  PM-|     PM    PM    PM
|---------------------------|
|---------------------------|
|---------------------------|
|---------------------------|
|------6S5---5S4---4S3------|
|-0--0-4S3-0-3S2-0-2S1-0----|


Tablature Legend
----------------
 h   - hammer-on
 p   - pull-off
 b   - bend
 pb  - pre-bend
 r   - bend release (if no number after the r, then release immediately)
 /\  - slide into or out of (from/to "nowhere")
 s   - legato slide
 S   - shift slide
  - natural harmonic
[n]  - artificial harmonic
n(n) - tapped harmonic
 ~   - vibrato
 tr  - trill
 T   - tap
 TP  - trem. picking
 PM  - palm muting
\n/  - tremolo bar dip; n = amount to dip
 \n  - tremolo bar down
 n/  - tremolo bar up
/n\  - tremolo bar inverted dip
 =   - hold bend; also acts as connecting device for hammers/pulls
 <>  - volume swell (louder/softer)
 x   - on rhythm slash represents muted slash
 o   - on rhythm slash represents single note slash

Misc Legend
-----------
 |  - bar
||  - double bar
||o - repeat start
o|| - repeat end
*|  - double bar (ending)
 :  - bar (freetime)
 $  - Segno
 &  - Coda
Tempo markers -  = BPM(8/16=s8/s16), where s8 = swing 8ths, s16 = swing 16ths
Добавлено: 11.10.2013
Другие материалы по этой песне:
  • Аккорды и текст

Страница создана 03.07.2012
http://primanota.ru/annihilator/dead-wrong-chords.htm
Привет, Гость.
Предлагаем пройти революционный курс по гитаре.
Подарок от PrimaNota.Ru, забирай!