PrimaNota.ru - самый крупный в мире бесплатный архив песенных текстов, аккордов, табулатур и нот


Wwe - Fight - Kevin Owens - таба, бас-таба, видео

Регистрация Запомнить меня
Войти через:  Facebook Google Twitter Vk Yandex Mail.ru

Wwe - Fight - Kevin Owens - таба, бас-таба, видео

Печатать
Просмотров: 158
Уроки эстрадного вокала в Санкт-Петербурге
Drop B Tuning (BF#BEG#C#)

Riff 1

Guitar 1
C#-----------|
G#-----------|
E------------|
B------------|  x6
F#-----------|
B--1b-0-1b-0-|

Guitar 2
C#-------------------------------------------------------------------------|
G#-------------------------------------------------------------------------|
E--------------------------------------------------------------------------|
B--7-7-7-7-7-7-7-7-7-7-7-7-7-7-7-7-7b-7b-7b-7b-7b-7b-7b-7b-7-7-7-7-7-7-7-7-|  x2
F#-------------------------------------------------------------------------|
B--------------------------------------------------------------------------|


Riff 2

Guitar 1
C#-------------------------------------------------|
G#-------------------------------------------------|
E--------12----------------------------------------|
B--12-12----12-15-12-12-14-12-12-14-12-14-12-15-12-|  X4
F#-------------------------------------------------|
B--------------------------------------------------|

C#------------------------------------------------|
G#------------------------------------------------|
E--------15----14---------------------------14----|
B--12-12----12---12-12-15-12-12-14-12-15-12----12-|  X3/4
F#------------------------------------------------|
B-------------------------------------------------|


Guitar 2
C#---------------------------------------|
G#---------------------------------------|
E----------------------------------------|
B--0----8----0----10----5----8----3----1-|
F#-0----8----0----10----5----8----3----1-|
B--0----8----0----10----5----8----3----1-|


Just repeat that :)
Добавлено: 30.12.2015
Другие материалы по этой песне:
  • Аккорды и текст

Страница создана 17.11.2015
http://primanota.ru/wwe/fight-kevin-owens-chords.htm
Привет, Гость.
Предлагаем пройти революционный курс по гитаре.
Подарок от PrimaNota.Ru, забирай!