PrimaNota.ru - самый крупный в мире бесплатный архив песенных текстов, аккордов, табулатур и нот


Wwe - Hideo Itami - Tokiwakita - бас-таба, видео

Регистрация Запомнить меня
Войти через:  Facebook Google Twitter Vk Yandex Mail.ru

Wwe - Hideo Itami - Tokiwakita - бас-таба, видео

Печатать
Просмотров: 91
Уроки эстрадного вокала в Санкт-Петербурге
-------------------------------------------------------------------------------
                        Hideo Itami - Tokiwakita - WWE
-------------------------------------------------------------------------------
Tabbed by: Stancranford
E-mail: simonhawkinsuk@gmail.com

Tuning: DADG

Intro

G|-----------------|
D|-----------------|
A|-----------------|
D|-2---5--0--2--2--|

Main Riff

G|-----------------|
D|-----------------|
A|-----0-----------|
D|-4------2--4--4--|

Breakdown

G|------------------------------------------|
D|------------------------------------------|
A|----------------------------------------1-|
D|-0-0--0-0--0-0--0-0--0-0--0-0--0-0--0-0---|

Outro

G|---------------|
D|---------------|
A|---------------|
D|-2---5--0--2---|

Order:
Guitar Intro
Intro x 2      
Main Riff x 2    |
Breakdown x 2    |Loop x 5
Rest             |
Main Riff x 2
Breakdown x 2
Outro x 1


===============================================================================
Добавлено: 17.11.2015
Другие материалы по этой песне:
  • Аккорды и текст

Страница создана 17.11.2015
http://primanota.ru/wwe/hideo-itami-tokiwakita-chords.htm
Привет, Гость.
Предлагаем пройти революционный курс по гитаре.
Подарок от PrimaNota.Ru, забирай!