PrimaNota.ru - самый крупный в мире бесплатный архив песенных текстов, аккордов, табулатур и нот


Wwe - Black And Blue - Smackdown - таба, видео

Регистрация Запомнить меня
Войти через:  Facebook Google Twitter Vk Yandex Mail.ru

Wwe - Black And Blue - Smackdown - таба, видео

Печатать
Просмотров: 336
Уроки эстрадного вокала в Санкт-Петербурге
Drop B Tuning (BF#BEG#C#)


Intro
  .........................P.M..............................
C#----------------------------------------------------------|
G#----------------------------------------------------------|
E-----------------------------------------------------------|
B-----------------------------------------------------------|
F#----------------------------------------------------------|
B-0-0-0-0-0-0-0-0-8-8-8-8-8-8-8-8-8-5-5-5-5-5-5-5-5-8-8-8-8-|



Chorus
C#-------------------------------------------------------------|
G#-------------------------------------------------------------|
E--------------------------------------------------------------|
B--0--0--0-0-0-0-8--8--8-8-8-8--5--5--5-5-5-5-8--8-8-10--10-10-|  X2
F#-0--0--0-0-0-0-8--8--8-8-8-8--5--5--5-5-5-5-8--8-8-10--10-10-|
B--0--0--0-0-0-0-8--8--8-8-8-8--5--5--5-5-5-5-8--8-8-10--10-10-|

   .p.m.    p.m       .p.m.
C#------------------------------------|
G#------------------------------------|
E-------------------------------------|
B--------12-----10--------------------|
F#--------------------------8-10-10-8-|
B--0-0-0----0-0----12-0-0-0-----------|

   .p.m.    p.m       .p.m.
C#------------------------------------|
G#------------------------------------|
E-------------------------------------|
B--------12-----10--------------------|
F#--------------------------8-12-12-8-|
B--0-0-0----0-0----12-0-0-0-----------|

   .p.m.    p.m       .p.m.
C#----------------------------------------------|
G#----------------------------------------------|
E-----------------------------------------------|
B--------12-----10--------------------8--8-8-10-|
F#--------------------------8-10-10-8-8--8-8-10-|
B--0-0-0----0-0----12-0-0-0-----------8--8-8-10-|
   .p.m.    p.m       .p.m.
C#------------------------------------|
G#------------------------------------|
E-------------------------------------|
B--------12-----10--------------------|
F#--------------------------8-10-10-8-|
B--0-0-0----0-0----12-0-0-0-----------|

   .p.m.    p.m       .p.m.
C#------------------------------------|
G#------------------------------------|
E-------------------------------------|
B--------12-----10--------------------|
F#--------------------------8-12-12-8-|
B--0-0-0----0-0----12-0-0-0-----------|

   .p.m.    p.m       .p.m.
C#----------------------------------------------|
G#----------------------------------------------|
E-----------------------------------------------|
B--------12-----10--------------------8--8-8-10-|
F#--------------------------8-10-10-8-8--8-8-10-|
B--0-0-0----0-0----12-0-0-0-----------8--8-8-10-|



Verse
   .................................P.M......................................
C#---------------------------------------------------------------------------|
G#---------------------------------------------------------------------------|
E----------------------------------------------------------------------------|
B----------------------------------------------------------------------------|
F#---------------------------------------------------------------------------|
B--0-0-0-0-0-0-0-0-0-0-0-0-0-0-0-0-8-8-8-8-8-8-8-8-8-5-5-5-5-5-5-5-5-8-8-8-8-|



Chorus
C#-------------------------------------------------------------|
G#-------------------------------------------------------------|
E--------------------------------------------------------------|
B--0--0--0-0-0-0-8--8--8-8-8-8--5--5--5-5-5-5-8--8-8-10--10-10-|  X2
F#-0--0--0-0-0-0-8--8--8-8-8-8--5--5--5-5-5-5-8--8-8-10--10-10-|
B--0--0--0-0-0-0-8--8--8-8-8-8--5--5--5-5-5-5-8--8-8-10--10-10-|

   .p.m.    p.m       .p.m.
C#------------------------------------|
G#------------------------------------|
E-------------------------------------|
B--------12-----10--------------------|
F#--------------------------8-10-10-8-|
B--0-0-0----0-0----12-0-0-0-----------|

   .p.m.    p.m       .p.m.
C#------------------------------------|
G#------------------------------------|
E-------------------------------------|
B--------12-----10--------------------|
F#--------------------------8-12-12-8-|
B--0-0-0----0-0----12-0-0-0-----------|

   .p.m.    p.m       .p.m.
C#----------------------------------------------|
G#----------------------------------------------|
E-----------------------------------------------|
B--------12-----10--------------------8--8-8-10-|
F#--------------------------8-10-10-8-8--8-8-10-|
B--0-0-0----0-0----12-0-0-0-----------8--8-8-10-|
   .p.m.    p.m       .p.m.
C#------------------------------------|
G#------------------------------------|
E-------------------------------------|
B--------12-----10--------------------|
F#--------------------------8-10-10-8-|
B--0-0-0----0-0----12-0-0-0-----------|

   .p.m.    p.m       .p.m.
C#------------------------------------|
G#------------------------------------|
E-------------------------------------|
B--------12-----10--------------------|
F#--------------------------8-12-12-8-|
B--0-0-0----0-0----12-0-0-0-----------|

   .p.m.    p.m       .p.m.
C#----------------------------------------------|
G#----------------------------------------------|
E-----------------------------------------------|
B--------12-----10--------------------8--8-8-10-|
F#--------------------------8-10-10-8-8--8-8-10-|
B--0-0-0----0-0----12-0-0-0-----------8--8-8-10-|



Outro
C#-------------|
G#-------------|
E--------------|
B--0-----------|
F#-0-----------|
B--0-----------|
Добавлено: 17.11.2015
Другие материалы по этой песне:
  • Аккорды и текст

Страница создана 17.11.2015
http://primanota.ru/wwe/black-and-blue-smackdown-chords.htm
Привет, Гость.
Предлагаем пройти революционный курс по гитаре.
Подарок от PrimaNota.Ru, забирай!