PrimaNota.ru - самый крупный в мире бесплатный архив песенных текстов, аккордов, табулатур и нот


Wwe - Here To Show The World - Dolph Ziggler - таба, видео

Регистрация Запомнить меня
Войти через:  Facebook Google Twitter Vk Yandex Mail.ru

Wwe - Here To Show The World - Dolph Ziggler - таба, видео

Печатать
Просмотров: 48
Drop B Tuning (BF#BEG#C#)

Intro
C#-----------------|
G#-----------------|
E------------------|
B--10-10-10--7-----|
F#-10-10-10--7-----|
B--10-10-10--7--12\|

C#-------------------|
G#-------------------|
E--------------------|
B--2-2-2-2-5-5-0-0-7-|  x5
F#-2-2-2-2-5-5-0-0-7-|
B--2-2-2-2-5-5-0-0-7-|

C#-------------------------|
G#-------------------------|
E--5-5-5-5-----------------|
B--5-5-5-5-5/7-7-7-7-9-9-9-|
F#-3-3-3-3-5/7-7-7-7-9-9-9-|
B----------5/7-7-7-7-9-9-9-|

C#-------------------|
G#-------------------|
E--------------------|
B--2-2-2-2-5-5-0-0-7-|  x2
F#-2-2-2-2-5-5-0-0-7-|
B--2-2-2-2-5-5-0-0-7-|



Verse
                              p.m
C#------------------------------------|
G#------------------------------------|
E-------------------------------------|
B--2-2-2--0-0-0--7-7-7--5-5-5-7-7-9-9-|
F#-2-2-2--0-0-0--7-7-7--5-5-5-7-7-9-9-|
B--2-2-2--0-0-0--7-7-7--5-5-5-7-7-9-9-|

C#-------------------------------------|
G#-------------------------------------|
E--------------------------------------|
B--2-2-2--0-0-0--10-10-10--7-7-7-9-9-9-|
F#-2-2-2--0-0-0--10-10-10--7-7-7-9-9-9-|
B--2-2-2--0-0-0--10-10-10--7-7-7-9-9-9-|
   
     .........................p.m.......................... p.m
C#---------------------------------------------------------------|
G#---------------------------------------------------------------|
E----------------------------------------------------------------|
B--2-------------------------------------------------------5---5-|
F#-2-------------------------------------------------------5---5-|
B--2-2-2-2-2-2-2-2-0-0-0-0-0-0-0-7-7-7-7-7-7-7-7-5-5-5-5-5-5-5-5-|

     ......................p.m..................
C#-------------------------------------------------------------|
G#-------------------------------------------------------------|
E--------------------------------------------------------------|
B--2---------------------------------------------10-10-10------|
F#-2---------------------------------------------10-10-10------|
B--2-2-2-2-2-2-2-2-0-0-0-0-0-0-0-7-7-7-7-7-7-7-7-10-10-10--12\-|



Chorus
C#-------------------|
G#-------------------|
E--------------------|
B--2-2-2-2-5-5-0-0-7-|  x3
F#-2-2-2-2-5-5-0-0-7-|
B--2-2-2-2-5-5-0-0-7-|

C#-------------------------|
G#-------------------------|
E--5-5-5-5-----------------|
B--5-5-5-5-5/7-7-7-7-9-9-9-|
F#-3-3-3-3-5/7-7-7-7-9-9-9-|
B----------5/7-7-7-7-9-9-9-|



Verse
                              p.m
C#------------------------------------|
G#------------------------------------|
E-------------------------------------|
B--2-2-2--0-0-0--7-7-7--5-5-5-7-7-9-9-|
F#-2-2-2--0-0-0--7-7-7--5-5-5-7-7-9-9-|
B--2-2-2--0-0-0--7-7-7--5-5-5-7-7-9-9-|

C#-------------------------------------------|
G#-------------------------------------------|
E--------------------------------------------|
B--2-2-2--0-0-0--10-10-10--7-7-7-7-7-9-9-9-9-|
F#-2-2-2--0-0-0--10-10-10--7-7-7-7-7-9-9-9-9-|
B--2-2-2--0-0-0--10-10-10--7-7-7-7-7-9-9-9-9-|
   
     .........................p.m.......................... p.m
C#---------------------------------------------------------------|
G#---------------------------------------------------------------|
E----------------------------------------------------------------|
B--2-------------------------------------------------------5---5-|
F#-2-------------------------------------------------------5---5-|
B--2-2-2-2-2-2-2-2-0-0-0-0-0-0-0-7-7-7-7-7-7-7-7-5-5-5-5-5-5-5-5-|

     ......................p.m..................
C#--------------------------------------------------------|
G#--------------------------------------------------------|
E---------------------------------------------------------|
B--2---------------------------------------------10-10-10-|
F#-2---------------------------------------------10-10-10-|
B--2-2-2-2-2-2-2-2-0-0-0-0-0-0-0-7-7-7-7-7-7-7-7-10-10-10-|



Chorus
C#-------------------|
G#-------------------|
E--------------------|
B--2-2-2-2-5-5-0-0-7-|  x3
F#-2-2-2-2-5-5-0-0-7-|
B--2-2-2-2-5-5-0-0-7-|

C#-------------------------|
G#-------------------------|
E--5-5-5-5-----------------|
B--5-5-5-5-5/7-7-7-7-9-9-9-|
F#-3-3-3-3-5/7-7-7-7-9-9-9-|
B----------5/7-7-7-7-9-9-9-|

C#-------------------|
G#-------------------|
E--------------------|
B--2-2-2-2-5-5-0-0-7-|  x3
F#-2-2-2-2-5-5-0-0-7-|
B--2-2-2-2-5-5-0-0-7-|

C#-------------------------|
G#-------------------------|
E--5-5-5-5-----------------|
B--5-5-5-5-5/7-7-7-7-9-9-9-|
F#-3-3-3-3-5/7-7-7-7-9-9-9-|
B----------5/7-7-7-7-9-9-9-|



Bridge
   ..p.m..   ..p.m..   p.m
C#---------------------------|
G#---------------------------|
E--------------------3-----3-|
B----------5---------3-----3-|  x3
F#---------5---------1-----1-|
B--2-2-2-2-5-2-2-2-2---2-2---|

   .p.m.  p.m
C#----------------------|
G#----------------------|
E3-------3--------------|
B3-------3---5-2--------|
F#-------1---5-2--------|
B--2-2-2---2-5-2--------|

     ...........................p.m................................
C#-----------------------------------------------------------------|
G#-----------------------------------------------------------------|
E------------------------------------------------------------------|
B--2---------------------------------------------------------------|
F#-2---------------------------------------------------------------|
B--2-2-2-2-2-2-2-2-0-0-0-0-0-0-0-0-7-7-7-7-7-7-7-7-5-5-5-5-5-5-5-5-|

   .....................p.m...................
C#------------------------------------------------------|
G#------------------------------------------------------|
E-------------------------------------------------------|
B----------------------------------------------10-10-10-|
F#---------------------------------------------10-10-10-|
B--2-2-2-2-2-2-2-0-0-0-0-0-0-0-7-7-7-7-7-7-7-7-10-10-10-|



Chorus
C#-------------------|
G#-------------------|
E--------------------|
B--2-2-2-2-5-5-0-0-7-|  x3
F#-2-2-2-2-5-5-0-0-7-|
B--2-2-2-2-5-5-0-0-7-|

C#-------------------------|
G#-------------------------|
E--5-5-5-5-----------------|
B--5-5-5-5-5/7-7-7-7-9-9-9-|
F#-3-3-3-3-5/7-7-7-7-9-9-9-|
B----------5/7-7-7-7-9-9-9-|

C#-------------------|
G#-------------------|
E--------------------|
B--2-2-2-2-5-5-0-0-7-|  x3
F#-2-2-2-2-5-5-0-0-7-|
B--2-2-2-2-5-5-0-0-7-|

C#-------------------------|
G#-------------------------|
E--5-5-5-5-----------------|
B--5-5-5-5-5/7-7-7-7-9-9-9-|
F#-3-3-3-3-5/7-7-7-7-9-9-9-|
B----------5/7-7-7-7-9-9-9-|

C#----------|
G#----------|
E-----------|
B--2--2--2--|
F#-2--2--2--|
B--2--2--2--|
Добавлено: 17.11.2015
Другие материалы по этой песне:
  • Аккорды и текст

Страница создана 17.11.2015
http://primanota.ru/wwe/here-to-show-world-dolph-ziggler-chords.htm
Привет, Гость.
Предлагаем пройти революционный курс по гитаре.
Подарок от PrimaNota.Ru, забирай!