PrimaNota.ru - самый крупный в мире бесплатный архив песенных текстов, аккордов, табулатур и нот


Wwe - Steve Austin - I Wont Do What You Tell Me - бас-таба, видео

Регистрация Запомнить меня
Войти через:  Facebook Google Twitter Vk Yandex Mail.ru

Wwe - Steve Austin - I Wont Do What You Tell Me - бас-таба, видео

Печатать
Просмотров: 51
-------------------------------------------------------------------------------
                Steve Austin - I Won't Do What You Tell Me - WWE
-------------------------------------------------------------------------------
Tabbed by: Stancranford
E-mail: simonhawkinsuk@gmail.com

Tuning: EADG

Intro

G|------------------------------------------------------------------------------------------------------|
D|------------------------------------------------------------------------------------------------------|
A|------------------------------------------------------------------------------------------------------|
E|-0-0--0-1--0-0------------0-0--0-1--0-0------------0-0--0-1--0-0------------0-0--0-1-0-0-----12\------|

Main Riff

G|------------------------|
D|------------------------|
A|------------------------|
E|-0-0--0-1--0-0--0-1-1-2-|

Bridge

G|----------------------------------------------|
D|----------------------------------------------|
A|---1---1---1---1--1-1-2---1---1---1---1-1-2-1-|
E|-1---1---1---1----------1---1---1---1---------|

Order:
Intro x 1      |
Main Riff x 8  | Loop until end
Bridge x 4     | 
Rest           |


===============================================================================
Добавлено: 17.11.2015
Другие материалы по этой песне:
  • Аккорды и текст

Страница создана 17.11.2015
http://primanota.ru/wwe/steve-austin-i-wont-do-what-you-tell-me-chords.htm
Привет, Гость.
Предлагаем пройти революционный курс по гитаре.
Подарок от PrimaNota.Ru, забирай!