PrimaNota.ru - самый крупный в мире бесплатный архив песенных текстов, аккордов, табулатур и нот


Wwe - Paige Stars In The Night - таба, видео

Регистрация Запомнить меня
Войти через:  Facebook Google Twitter Vk Yandex Mail.ru

Wwe - Paige Stars In The Night - таба, видео

Печатать
Просмотров: 162
Уроки эстрадного вокала в Санкт-Петербурге
  Gtr I
                                ~
  E E E E E E E E   E E E E E E Q    E E E E E E E E   E E Q  E E Q
|-----------------|----------------|-----------------|----------------|
|-----------------|----------------|-----------------|----------------|
|-7-7-----7-7-----|---------7-8-7--|-7-7-----7-7-----|-5-5----5-5-----|
|-x-x-----x-x-----|---------x-x-x--|-x-x-----x-x-----|-x-x----x-x-----|
|-5-5-----5-5-----|-x-x-x-x-5-6-5--|-5-5-----5-5-----|-3-3-0--3-3-0---|
|-----0-0-----0-0-|-x-x-x-x--------|-----0-0-----0-0-|-----0------0---|


                                ~
  E E E E E E E E   E E E E E E Q    E E E E E E E E   E E Q  E E Q
|-----------------|----------------|-----------------|---------------|
|-----------------|----------------|-----------------|---------------|
|-7-7-----7-7-----|---------7-8-7--|-7-7-----7-7-----|-5-5----5-5----|
|-x-x-----x-x-----|---------x-x-x--|-x-x-----x-x-----|-x-x----x-x----|
|-5-5-----5-5-----|-x-x-x-x-5-6-5--|-5-5-----5-5-----|-3-3-0--3-3-0--|
|-----0-0-----0-0-|-x-x-x-x--------|-----0-0-----0-0-|-----0------0--|


                                   ~
   E E E E E E E E    E E E E  E E Q     E E E E E E E E    E E Q   E  E Q
|------------------|------------------|------------------|------------------|
|------------------|------------------|------------------|------------------|
|--7-7-----7-7-----|-----------7-8-7--|--7-7-----7-7-----|--5-5-----5-------|
|--x-x-----x-x-----|-----------x-x-x--|--x-x-----x-x-----|--x-x-----x--3----|
|--5-5-----5-5-----|--x-x-x-x--5-6-5--|--5-5-----5-5-----|--3-3-0---3--3----|
|------0-0-----0-0-|--x-x-x-x---------|------0-0-----0-0-|------0------3----|
|
| Gtr II
|  TP                 TP       TP        TP                 TP      TP
|  W                  H        H         W                  H       Q
|------------------|------------------|------------------|-22------22\------|
|-15---------------|-16-------18------|-15---------------|------------------|
|------------------|------------------|------------------|------------------|
|------------------|------------------|------------------|------------------|
|------------------|------------------|------------------|------------------|
|------------------|------------------|------------------|------------------|


  Q  Q  Q  Q    Q  Q  Q  Q   Q  Q  Q  Q    Q  Q  Q  Q
|-------------|------------|-------------|--------------|
|-------------|------------|-------------|--------------|
|-------------|------------|-------------|--------------|
|-0--0--0--0--|-0--0--0--0-|-3--3--3--3--|-3--3--3--3---|
|-0--0--0--0--|-0--0--0--0-|-3--3--3--3--|-3--3--3--3---|
|-0--0--0--0--|-0--0--0--0-|-3--3--3--3--|-3--3--3--3---|


  Q  Q  Q  Q    Q  Q  Q  Q    Q  Q  Q  Q    Q  Q  Q  Q
|-------------|-------------|-------------|-------------|
|-------------|-------------|-------------|-------------|
|-5--5--5--5--|-5--5--5--5--|-------------|-------------|
|-5--5--5--5--|-5--5--5--5--|-5--5--5--5--|-5--5--5--5--|
|-3--3--3--3--|-3--3--3--3--|-5--5--5--5--|-5--5--5--5--|
|-------------|-------------|-5--5--5--5--|-5--5--5--5--|


  H    Q  Q    Q  Q  Q  Q    Q  Q  Q  Q    Q  Q  Q  Q
|------------|-------------|-------------|-------------|
|------------|-------------|-------------|-------------|
|------------|-------------|-------------|-------------|
|------0--0--|-0--0--0--0--|-3--3--3--3--|-3--3--3--3--|
|------0--0--|-0--0--0--0--|-3--3--3--3--|-3--3--3--3--|
|------0--0--|-0--0--0--0--|-3--3--3--3--|-3--3--3--3--|


  Q  Q  Q  Q    Q  Q  Q  Q    Q  Q  Q  Q    Q  Q  Q  Q
|-------------|-------------|-------------|-------------|
|-------------|-------------|-------------|-------------|
|-5--5--5--5--|-5--5--5--5--|-------------|-------------|
|-5--5--5--5--|-5--5--5--5--|-5--5--5--5--|-5--5--5--5--|
|-3--3--3--3--|-3--3--3--3--|-5--5--5--5--|-5--5--5--5--|
|-------------|-------------|-5--5--5--5--|-5--5--5--5--|
Добавлено: 17.11.2015
Другие материалы по этой песне:
  • Аккорды и текст

Страница создана 17.11.2015
http://primanota.ru/wwe/paige-stars-in-night-chords.htm
Привет, Гость.
Предлагаем пройти революционный курс по гитаре.
Подарок от PrimaNota.Ru, забирай!