PrimaNota.ru - самый крупный в мире бесплатный архив песенных текстов, аккордов, табулатур и нот


Wwe - Rest In Peace Undertaker Theme - таба, видео

Регистрация Запомнить меня
Войти через:  Facebook Google Twitter Vk Yandex Mail.ru

Wwe - Rest In Peace Undertaker Theme - таба, видео

Печатать
Просмотров: 507
-------------------------------------------------------------------------------
              Rest in Peace [Undertaker's WWE Theme] - WWE
-------------------------------------------------------------------------------
Tabbed by: MC_WhiteNoise

Tuning: Standard

e|--------------------------------12-------10-12-10-------12-10-15-14-12-10-|
B|5--5--5-5--8--7-7--5-5--4--5-------10-12----------12-10-------------------|
G|--------------------------------------------------------------------------|
D|--------------------------------------------------------------------------|
A|--------------------------------------------------------------------------|
E|--------------------------------------------------------------------------|

e|-----------------------------------9-10-15-14-12-10-9-15-14-12-10-15-14-12|
B|12----10----------10------------------------------------------------------|
G|---12----12-11-12----12-11-9-11-------------------------------------------|
D|--------------------------------------------------------------------------|
A|--------------------------------------------------------------------------|
E|--------------------------------------------------------------------------|

e|17-15-14-12-10-12-------10-12-10------------------------------------------|
B|------------------10-12----------12-10-12---------------------------------|
G|--------------------------------------------------------------------------|
D|--------------------------------------------------------------------------|
A|--------------------------------------------------------------------------|
E|--------------------------------------------------------------------------|

I personally prefer to play it one octave down:

e|---------------------------------------------------------------|
B|---------------------------------------------------------------|
G|--------------------------------9------7-9-7-----9-7-12-11-9-7-|
D|2--2--2-2--5--4-4--2-2--1--2-------7-9-------9-7---------------|
A|---------------------------------------------------------------|
E|---------------------------------------------------------------|

e|--------------------------------------------------------------------|
B|--------------------------------------------------------------------|
G|9----7---------7-------------6-7--12-11-9--7--6-12-11-9--7--12-11-9-|
D|--10---10-9-10---10-9-7-9-------------------------------------------|
A|--------------------------------------------------------------------|
E|--------------------------------------------------------------------|

e|--------------------------------------------------------------------|
B|--------------------------------------------------------------------|
G|14-12-11-9--7--9--------7--9--7-------------------------------------|
D|------------------7--9-----------9--7--9----------------------------|
A|--------------------------------------------------------------------|
E|--------------------------------------------------------------------|


************************************

| /   slide up
| \   slide down
| h   hammer-on
| p   pull-off
| ~   vibrato
| +   harmonic
| x   Mute note
| b   Bend
| pb  Pre-bend
| br  Bend release
| pbr Pre-bend release
| brb Bend release bend

************************************
Добавлено: 05.04.2012
Другие материалы по этой песне:
  • Аккорды и текст

Страница создана 05.04.2012
http://primanota.ru/wwe/rest-in-peace-undertaker-theme-chords.htm
Привет, Гость.
Предлагаем пройти революционный курс по гитаре.
Подарок от PrimaNota.Ru, забирай!