PrimaNota.ru - самый крупный в мире бесплатный архив песенных текстов, аккордов, табулатур и нот


Wwe - Fandango Theme Chachalala - таба, видео

Регистрация Запомнить меня
Войти через:  Facebook Google Twitter Vk Yandex Mail.ru

Wwe - Fandango Theme Chachalala - таба, видео

Печатать
Просмотров: 109
Still absent a solo and some of the ending parts, but they're similar to the parts below.  
I put in some of the articulation, but being that it's written for horns, 
just blend it into your style or what feels right.  
I recommend trying to use a good mix of legato in between the heavy staccato parts. 

 e|--------------------|-------------------------------------------|
 B|--------------------|-----15--15-----15\14~-------------13------|
 G|----------------12~-|-12~--------12---------13\11\10-10---------|
 D|-------------12-----|-------------------------------------------|
 A|----12-15-14--------|-------------------------------------------|
 E|-13-----------------|-------------------------------------------|

e|-----------------------------------------------------------------------------------------------|
B|-10--13-10-12---------15-15----15\14-----------------------------------------------------------|
G|--------------13--12--------12--------13\11\10-10-10-----------10-12-13-14-13-10--------14-13--|
D|------------------------------------------------------10-12-13-------------------10--10--------|
A|-----------------------------------------------------------------------------------------------|
E|-----------------------------------------------------------------------------------------------|

e|-----------------------------------------------------------------|
B|-----15-15--15-----15\14-------------13-------13-10--13-10-12----|
G|-12------------12--------13-11-10-10----10-10-----------------13-|
D|-----------------------------------------------------------------|
A|-----------------------------------------------------------------|
E|-----------------------------------------------------------------|

e|------------------------------------------------------------------------------------|
B|-----15--15-15-15-----15\14---------------------------------------------------------|
G|-12----------------12-------13-11-10-10-10-----------10-12-13-14-13-10--------14-13-|
D|--------------------------------------------10-12-13-------------------10--10-------|
A|------------------------------------------------------------------------------------|
E|------------------------------------------------------------------------------------|

e|----------------------------11-12-13--10---------------------------------------|-----|
B|-------------------11-13-15---------------12-------------15--13-11-10----------|-----|
G|----------10-12-14----------------------------13--13\12---------------12-10----|-0---|
D|-10-12-13-------------------------------------------------------------------12-|--/--|
A|-------------------------------------------------------------------------------|---0-|
E|-------------------------------------------------------------------------------|-----|

e|-----------------|
B|-----------------|
G|-10-----10-11~---|
D|-----12----------|
A|-----------------|
E|-----------------|

e|-------------------------------------------|
B|-----15--15-----15\14~-------------13------|
G|-12~--------12---------13\11\10-10---------|
D|-------------------------------------------|
A|-------------------------------------------|
E|-------------------------------------------|

e|---------------------------------------------------------------|
B|-10--13-10-12---------15-15----15\14---------------------------|
G|--------------13--12--------12--------13\11\10-10-10---14---13-|
D|---------------------------------------------------------------|
A|---------------------------------------------------------------|
E|---------------------------------------------------------------|

 e|-------------------------------------------|
 B|-----15--15-----15\14~-------------13------|
 G|-12~--------12---------13\11\10-10---------|
 D|-------------------------------------------|
 A|-------------------------------------------|
 E|-------------------------------------------|

e|---------------------------------------------------------------------------------|
B|-10--13-10-12---------15-15----15\14---------------------------------------------|
G|--------------13--12--------12--------13\11\10-10-10-----------10-12-13-14-13-10-|
D|------------------------------------------------------10-12-13-------------------|
A|---------------------------------------------------------------------------------|
E|---------------------------------------------------------------------------------|
Добавлено: 06.08.2013
Другие материалы по этой песне:
  • Аккорды и текст

Страница создана 06.08.2013
http://primanota.ru/wwe/fandango-theme-chachalala-chords.htm
Привет, Гость.
Предлагаем пройти революционный курс по гитаре.
Подарок от PrimaNota.Ru, забирай!