PrimaNota.ru - самый крупный в мире бесплатный архив песенных текстов, аккордов, табулатур и нот


Wwe - Meat On Thele - таба, видео

Регистрация Запомнить меня
Войти через:  Facebook Google Twitter Vk Yandex Mail.ru

Wwe - Meat On Thele - таба, видео

Печатать
Просмотров: 114
-------------------------------------------------------------------------------
                             Meat On The Table - Jim Johnston
-------------------------------------------------------------------------------
Tabbed by: WWE Theme Fan
E-mail: Joshthemetalfan@gmail.com

Tuning: Drop D

e|---------------------------------------------------------------------------|
B|---------------------------------------------------------------------------|
G|---------------------------------------------------------------------------|
D|---------------------------------------------------------------------------| Main Riff 
A|-0-0-5-0-3-0-0-0-0-0-5-0-1-1-1-1-0-0-5-0-3-0-0-0-0-0-5-0-3-2-1-0-----------|
D|-0-0-5-0-3-0-0-0-0-0-5-0-1-1-1-1-0-0-5-0-3-0-0-0-0-0-5-0-3-2-1-0-----------|
   . .   .   . .   . .   .         . .   .   . .   . .   .
e|---------------------------------------------------------------------------|
B|---------------------------------------------------------------------------|
G|---------------------------------------------------------------------------|
D|---------------------------------------------------------------------------| Verse Riff
A|-0-0-5-0-3-0-0-0-0-0-5-0-3-0-3-\6-0-0-5-0-3-0-0-0-0-0-5-0-3-2-1-0-----------|
D|-0-0-5-0-3-0-0-0-0-0-5-0-3-0-3-\6-0-0-5-0-3-0-0-0-0-0-5-0-3-2-1-0-----------|
   . .   .   . .   . .   .   .      . .   .   . .   . .   .




************************************

| /   slide up
| \   slide down
| h   hammer-on
| p   pull-off
| ~   vibrato
| +   harmonic
| x   Mute note
| b   Bend
| pb  Pre-bend
| br  Bend release
| pbr Pre-bend release
| brb Bend release bend

************************************
Добавлено: 15.07.2015
Другие материалы по этой песне:
  • Аккорды и текст

Страница создана 15.07.2015
http://primanota.ru/wwe/meat-on-thele-chords.htm
Привет, Гость.
Предлагаем пройти революционный курс по гитаре.
Подарок от PrimaNota.Ru, забирай!